» » »

All Around The World Bass tabs (ver.3)

Artists:  A B C D E F G H I J K L M N O P Q R S T U V W X Y Z # 

All Around The World Bass tabs (ver.3)

Red Hot Chili Peppers
Rating:
0/5 (0 votes)

Hard to play? Try these video lessons and learn fast.
                v=vibrato; h=hammer on

Intro: Slap the open E on the first part. Then, repeat the second part of the intro several times (listen to the song).
|------------------------|---7h9--9--7h9--9--7h9--9---------0-----|
|------------------------|---------------------------9-8-7--------|
|------------------------|----------------------------------------|
|--0---0---0---0---0-----|----------------------------------------|
break....

|------10--12--------9--10----10--12-------|--10--9-----|
|------------------------------------------|---------12-|
|------------------------------------------|------------| 
|--3----------1--3----------3---------3--3-|------------|
    Repeat--this is the main riff

Sometimes the last part of the main riff varies---

Variation I                                                   Variation II
|----------------------------------------------          |--------------------
|-----------5----3---------------------------            |------------------        |------------------5-------------------------            |--------                  |--3--3-------------------------------------             |----6v--5v--3v--------

Chorus:
|--------------------------9--9--11--9--------------
|---11--9--11-9--11-------------------11---------
|-------------------------------------------------------
|-------------------------------------------------------

And that's pretty much it. There's some funky variations here and there and the intro comes back in later in the song, but this is pretty much it. "Life is beautiful" ( : (P.S. Check out their song "Savior" too ( ;   )
            
Hard to play? Try these video lessons and learn fast. | Correct




comments powered by Disqus
↑ Back to top | Tablatures and chords are parodies/interpretations of the original songs. You may use it for private study, scholarship, research or language learning purposes only