>
 >
All Around The World

All Around The World Bass Tabs

Red Hot Chili Peppers - All Around The World chords, tabs, tablatures, lyrics

Guitar lessons | Add/correct | Request | Top 50 tabs Artists:  A B C D E F G H I J K L M N O P Q R S T U V W X Y Z 0-9

All Around The World Bass Tabs – Red Hot Chili Peppers

CD, Sheet music, Poster

Do you like All Around The World? Share with your friends now
Bass TabsBass Tabs v2Bass Tabs v3
RED HOT CHILI PEPPERS- ALL AROUND THE WORLD-- GIVE IT UP FOR FLEA!
This is a cool sog, i suggest  a pick for the faster riffs, once
again another tab brought to by MadbassistgoneWrong.


G:----------------------------
D:----------------------------
A:----------------------------
E:-0----------0---0---0---0---



G:-------------------------------------------------
D:-12h14-14-12h14-14-12h14-14-12h14p12-------------
A:-------------------------------------14-13-12----
E:----------------------------------------------15-
						       x4
G:-------------------------------------------------
D:-12h14-14-12h14-14-12h14-14-12-------------------
A:-------------------------------14-13-12-10-------
E:-------------------------------------------12-10-

G:------------------
D:------------------
A:------------------
E:--------3/--------



G|----10-12-----9-10---10-12-----10-9----|
D|------------------------------------8--|
A|---------------------------------------|
E|--3-------1-3------3-------1-3---------|

G|----10-12-----9-10---10-12----------------|
D|---------------------------------3-2------|
A|-------------------------------1-----3-1--|
E|---------------------------1-3------------|

G|----10-12-----9-10---10-12--------|---10-12-----9-10---10-12--|
D|----------------------------------|---------------------------|
A|---------------------------~3-~1--|---------------------------|
E|--3-------1-3------3--------------|--3------1-3------3--------|



G|---------------|       G|--------------------|
D|---------------|       D|--------------------|
A|------1-x-3-5--|       A|----1---1-3-5-8-10--|
E|--1-3----------|       E|--3---3-------------|



G|----------------------------------------------|  (x2)
D|-------10-13-----12--12-------10-------10-----|
A|--11-x--------10--------8--11-------------10--|
E|---------------------------------8--8---------|


G|----10-12-----9-10---10-12------10-9--|
D|--------------------------------------|
A|--------------------------------------|
E|--3-------1-3------3-------1-3--------|

G|----10-12-----9-10---10-12------------------|
D|---------------------------------3-2-3-2-3--|
A|-------------------------------1------------|
E|--3-------1-3------3-------1-3--------------|

G|----10-12-----9-10---10-12--------|----10-12-----9-10---10-12--|
D|----------------------------------|----------------------------|
A|---------------------------~3-~1--|----------------------------|
E|--3-------1-3------3--------------|--3-------1-3------3--------|


G|----10-12-----9-10---10-12----------------|
D|----------------------------x12-10--------|
A|-----------------------------------12-10--|
E|--3-------1-3------3----------------------|


G|-------------------------------------------|
D|-----13----13----12-12-----/6-6-5-3-----5--|
A|--11----11----10-------8-8----------3-3----|
E|-------------------------------------------|

G|-------------x7----------------------------------|  (x2)
D|--6-6-x6-5-5-------------------------------------|
A|----------------------------1-1-3-x3-1-3-5-8-10--|
E|----------------1-1-3-3-4-4----------------------|


G|-------------------|-------------------------|  (x13)
D|--0-3-2------------|--------0-3-2------------|
A|--------5-5-5-5-5--|----3---------5-5-5-5-5--|
E|-------------------|--5---5------------------|

G|------------------------------|-------------------------------|
D|--------0-3-2-----------------|--------0-3-2------------------|
A|----3---------5-/10-10-10-10--|----3---------5-/12-12-12-12\--|
E|--5---5-----------------------|--5---5------------------------|





Comments


Popular Red Hot Chili Peppers tabs & chords
Flea From Rhcp 2 Bass Tabs
Brendans Death Song 1 Chords
Californication 1 Chords
Even You Brutus 2 Chords
Battle Ship 1 Tabs
By The Way 4 Tabs
Can't Stop 1 Tabs
Cant Stop 3 Tabs
They're Red Hot Tabs
Californication Ukulele


Song lyrics



↑ Back to top | Tablatures and chords are parodies/interpretations of the original songs. You may use it for private study, scholarship, research or language learning purposes only
© 2014 AZChords.com Contact us | Privacy policy | DMCA | Add/correct tabs | Request tabs | Top 50 tabs