>
 >
Seventeen Years 1

Seventeen Years 1 Guitar Tabs

Ratatat - Seventeen Years 1 chords, tabs, tablatures, lyrics

Guitar lessons | Add/correct | Request | Top 50 tabs Artists:  A B C D E F G H I J K L M N O P Q R S T U V W X Y Z 0-9

Seventeen Years 1 Guitar Tabs – Ratatat

CD, Sheet music, Poster

Do you like Seventeen Years 1? Share with your friends now
Bass TabsBass Tabs v2Bass Tabs v3TabsTabs v2

Intro:

There are multiple layers that go on throughout the song. One lead line can be played
an octave high (A) and the other an octave low (B).
		
             --A--                                       --B--
Gtr. 1
e-----------------------------------------|----------------------------------|
B---11-10-11--8-10----8------8------------|----------------------------------|
G------------------10---9-10--10-9-10-7---|----------------------------------|
D-----------------------------------------|---8-7-8--5-7---5-----5-----------|
A-----------------------------------------|--------------8---7-8---8-7-8-5---|
E-----------------------------------------|----------------------------------|
Gtr.2
e----------------------------------------------------------------------------|
B----------------------------------------------------------------------------|
G--7-------------------------------------------------------------------------|
D--7--------------------7----------------------------------------------------|
A--5--------------------7----------------------------------------------------|
E-----------------------5----------------------------------------------------|



		--A--					--B--
Gtr. 1
e-----------------------------------------|----------------------------------|  
B11p10h11--8-10-8--8------8--------------|----------------------------------|
G-----------------10---9-10--10-9h10p9-7--|----------------------------------|
D-----------------------------------------|--8p7h8-5-7-5---5-----5-----------|
A-----------------------------------------|--------------8---7-8---8-7h8p7-5-|
E-----------------------------------------|----------------------------------|
Gtr.2
e----------------------------------------------------------------------------|
B----------------------------------------------------------------------------|
G----------------------------------------------------------------------------|
D-8--------------------3--------7--------------------------------------------|
A-8--------------------3--------7--------------------------------------------|
E-6--------------------1--------5--------------------------------------------|



___________________________________________________________________________


Lead 1
Gtr. 1
e-----------------------------------------------------------------------------|
B-------8---8-----------------8---8h10~---------8---8----------8h10-8h10------|
G--------10--------------------10-----------------10--------------------------|
D-------------10---------------------------------------10---------------------|
A-----------------------------------------------------------------------------|
E-----------------------------------------------------------------------------|
Gtr.2
e-----------------------------------------------------------------------------|
B-----------------------------------------------------------------------------|
G---------------------7-------------------------------------------------------|
D-8-------------------7------------------8---------------3-------7------------|
A-8-------------------5------------------8-10\-----------3-------7------------|
E-6--------------------------------------6---------------1-------5------------|

Gtr. 1				
e-------------------------------------------------------------------------------|
B-------8---8-----------------8---8h10~p8--------8---8------8----8h10-10-10p8---|
G--------10--------------------10-----------------10-------------------------10-|
D-------------10---------------------------------------10-----10----------------|
A-------------------------------------------------------------------------------|
E-------------------------------------------------------------------------------|
Gtr.2
e-----------------------------------------------------------------------------|
B-----------------------------------------------------------------------------|
G---------------------7-------------------------------------------------------|
D-8-------------------7-------------------8--------------3-------7--7---------|
A-8-------------------5-------------------8-10\----------3-------7--7---------|
E-6---------------------------------------6--------------1-------5--5---------|

____________________________________________________________________________


Lead 2

Gtr. 1
e-----------------------------------------------------------------------------|
B-------8---8-----------------8---8h10~---------8---8----------8h10-8h10------|
G--------10--------------------10-----------------10--------------------------|
D-------------10---------------------------------------10---------------------|
A-----------------------------------------------------------------------------|
E-----------------------------------------------------------------------------|
Gtr. 2
e----------------------------------------------------------------------------|
B----------------------------------------------------------------------------|
G----------------------------------------------------------------------------|
D-8-------------------12------------------8-------------------3---------7----|
A-8-------------------10------------------6-------------------1---------7----|
E-6-------------------10------------------6-------------------1---------5----|
Gtr. 3
e-------------8----------------8-----------8h10p8----------------8-----------|
B--------8h10--8--------8h10p8--------8h10----------------8h10p8-------------|
G----7h10-------10--7h10----------7h10------------10--7h10-------------------|
D----------------------------------------------------------------------------|
A----------------------------------------------------------------------------|
E----------------------------------------------------------------------------|

Gtr. 1
e-----------------------------------------------------------------------------|
B-------8---8-----------------8---8h10~---------8---8----------8h108h10-------|
G--------10--------------------10-----------------10--------------------------|
D-------------10---------------------------------------10---------------------|
A-----------------------------------------------------------------------------|
E-----------------------------------------------------------------------------|
Gtr. 2
e----------------------------------------------------------------------------|
B----------------------------------------------------------------------------|
G----------------------------------------------------------------------------|
D-8-------------------12------------------8-------------------3---------7----|
A-8-------------------10------------------6-------------------1---------7----|
E-6-------------------10------------------6-------------------1---------5----|
Gtr. 3
e-------------8----------------8-----------8h10p8----------------8-----------|
B--------8h10--8--------8h10p8--------8h10----------------8h10p8-------------|
G----7h10-------10--7h10----------7h10------------10--7h10-------------------|
D----------------------------------------------------------------------------|
A----------------------------------------------------------------------------|
E----------------------------------------------------------------------------|


_____________________________________________________________________________



            --A--                                           --B--
Gtr. 1
e-----------------------------------------|----------------------------------|
B---11-10-11--8-10----8------8------------|----------------------------------|
G------------------10---9-10--10-9-10-7---|----------------------------------|
D-----------------------------------------|---8-7-8--5-7---5-----5-----------|
A-----------------------------------------|--------------8---7-8---8-7-8-5---|
E-----------------------------------------|----------------------------------|
Gtr.2
e----------------------------------------------------------------------------|
B----------------------------------------------------------------------------|
G--7-------------------------------------------------------------------------|
D--7--------------------7----------------------------------------------------|
A--5--------------------7----------------------------------------------------|
E-----------------------5----------------------------------------------------|

Lead Gtr.
e-20b22--------------------20---18-17-20---18p17-17--------------------------|
B----------------------------------------------------------------------------|
G----------------------------------------------------------------------------|
D----------------------------------------------------------------------------|
A----------------------------------------------------------------------------|
E----------------------------------------------------------------------------|


Gtrs. 1
e--------------------------------------------------------------------------|
B11p10h11--8-10-8--8------8-----------------------------------------------|
G-----------------10---9-10--10-9h10p9-7-----------------------------------|
D--------------------------------------------------------------------------|
A--------------------------------------------------------------------------|
E--------------------------------------------------------------------------|
Gtr.2
e----------------------------------------------------------------------------|
B----------------------------------------------------------------------------|
G----------------------------------------------------------------------------|
D-8--------------------3--------7--------------------------------------------|
A-8--------------------3--------7--------------------------------------------|
E-6--------------------1--------5--------------------------------------------|


Lead Gtr.
e-17~------------------13-15p13--17-15-13-17-15------------------------------|
B----------------------------------------------------------------------------|
G----------------------------------------------------------------------------|
D----------------------------------------------------------------------------|
A----------------------------------------------------------------------------|
E----------------------------------------------------------------------------|


Bridge

Gtr.1
e-----------------------------------------------------------------------------|
B-10-10-10-10-10-10-10-10-10-10-10-10-10-10-10-10-11-11-11-11-11-11-11-11-----|
G-10-10-10-10-10-10-10-10--9--9--9--9--9--9--9--9-10-10-10-10-10-10-10-10-----|
D-----------------------------------------------------------------------------|
A-----------------------------------------------------------------------------|
E-----------------------------------------------------------------------------|
Gtr.1
e-----------------------------------------------------------------------------|
B-10-10-10-10-10-10-8--8------------------------------------------------------|
G-10-10-10-10-10-10-10-10-----------------------------------------------------|
D-----------------------------------------------------------------------------|
A-----------------------------------------------------------------------------|
E-----------------------------------------------------------------------------|


Outro
This is the Synth part ( when they play live they use an ebow ) 
Gtr. 1
e-----------------------8--6-------------------------------------------------|
B-10------8------6------------10------8------6-------------------------------|
G----------------------------------------------------------------------------|
D----------------------------------------------------------------------------|
A----------------------------------------------------------------------------|
E----------------------------------------------------------------------------|

e-------------------------------------------------------------------------|
B-------5------6----------------------------------------------------------|
G-5--7-----------------7--------------------------------------------------|
D-------------------------------7-----------------------------------------|
A-------------------------------------------------------------------------|
E-------------------------------------------------------------------------|

e--8------------------------------10-8--------------------------------------|
B----------10------8------6-------------10------8------6--------------------|
G---------------------------------------------------------------------------|
D---------------------------------------------------------------------------|
A---------------------------------------------------------------------------|
E---------------------------------------------------------------------------|
Repeat last line until end


and that's about it.





Comments


Popular Ratatat tabs & chords
Germany To Germany Bass Tabs
Loud Pipes 2 Bass Tabs
Seventeen Years 2 Bass Tabs
Allure Tabs
Bare Feast Tabs
Cherry 1 Tabs
Lex Tabs
Montanita 3 Tabs
Two Tabs
Wildcat 1 Tabs


Song lyrics



↑ Back to top | Tablatures and chords are parodies/interpretations of the original songs. You may use it for private study, scholarship, research or language learning purposes only
© 2014 AZChords.com Contact us | Privacy policy | DMCA | Add/correct tabs | Request tabs | Top 50 tabs