>
 >
Wildcat

Wildcat Bass Tabs

Ratatat - Wildcat chords, tabs, tablatures, lyrics

Guitar lessons | Add/correct | Request | Top 50 tabs Artists:  A B C D E F G H I J K L M N O P Q R S T U V W X Y Z 0-9

Wildcat Bass Tabs – Ratatat

CD, Sheet music, Poster

Do you like Wildcat? Share with your friends now
Bass TabsBass Tabs v2TabsTabs v2Tabs v3
--------------------------------------------------------------
--------------------------------------------------------------

Tuning: EADG

These are the variations of the bass line.   (11's not 1's)

G|--------------------------6--------------------------------|
D|-----------------------------------------------------------|
A|-8-86h8--------6-6-6-4----4/8-8-8-6h86h8-8-8/11-1111-----|
E|----------6h8--8-------------------------------------------|

G|---------------------------6-------------------------------|
D|-----------------------------------------------------------|
A|--8-86h8--------6-6-6-4----4/8-8-8-6h86h8-8-8------------|
E|-----------6h8--8-----------------------------------6-6----|

G|--------------------------6--------------------------------|
D|-----------------------------------------------------------|
A|-8-86h8--------6-6-6-4----4/8-8-8-6h86h8-8-8/11-1111-----|
E|----------6h8--8-------------------------------------------|

G|---------------------------6-------------------------------|
D|-----------------------------------------------------------|
A|--8-86h8--------6-6-6-4----4/8-8-8-6h86h8~---------------|
E|-----------6h8--8------------------------------------------|

Im not 100% on this part, but correct me if you know it.

G|-----------------------------------------------------------|
D|-----------------------------------------------------------|
A|-------------6-6-6-6-66-------------8----------------------|
E|-6-6-6-6-66--------------9-9-9-9-99------4-44--------------|

Play this for the rest of the song.

G|-----------------------------------------------------------|
D|-----------------------------------------------------------|
A|----------------------/8-88~--/8-88~-----------------------|
E|--/6-66~----/9-99~-----------------------------------------|





Comments


Popular Ratatat tabs & chords
Allure Bass Tabs
Lex 2 Bass Tabs
Loud Pipes Bass Tabs
Bare Feast Tabs
El Pico Tabs
Mirando Tabs
Party And Bullshit Tabs
Shiller Tabs
Swisha Intro Tabs
Tropicana Tabs


Song lyrics



↑ Back to top | Tablatures and chords are parodies/interpretations of the original songs. You may use it for private study, scholarship, research or language learning purposes only
© 2014 AZChords.com Contact us | Privacy policy | DMCA | Add/correct tabs | Request tabs | Top 50 tabs