» » »

Seventeen Years Bass tabs (ver.1)

Artists:  A B C D E F G H I J K L M N O P Q R S T U V W X Y Z # 

Seventeen Years Bass tabs (ver.1)

Ratatat
Rating:
0/5 (0 votes)

Hard to play? Try these video lessons and learn fast.
                
G|-------------------------|
D|-------------------------|
A|5---------5--------------|
E|--5-6-1-5----------------|x4


G|-------------------------|
D|-------------------------|
A|--5----------------------|
E|6---6-1-5----------------|x4


G|-------------------------|
D|-------------------------|
A|5---------5--------------|
E|--5-6-1-5----------------|x2

Synth Break, then:  
                
G|----|-----------------------------------------------|
D|--7-|-----------7--------------7---------7----------|
A|5---|----8--5-5---------8--5-5--------8-------------|
E|----|6-6------------6-6-----------6-6---------------|

G|----------------------------------------------------|
D|-----------7----------------------------------------|
A|8-7-12-------7-8--7-12-------------5----------------|
E|-------10--------------10---5-6--8---6-1------------|


G|------------------------|
D|------------------------|
A|--5---------------------|
E|8---6-1-----------------| x7

Fin xD
            
Hard to play? Try these video lessons and learn fast. | Correct




comments powered by Disqus
↑ Back to top | Tablatures and chords are parodies/interpretations of the original songs. You may use it for private study, scholarship, research or language learning purposes only