» » »

Seventeen Years Bass tabs (ver.2)

Artists:  A B C D E F G H I J K L M N O P Q R S T U V W X Y Z # 

Seventeen Years Bass tabs (ver.2)

Ratatat
Rating:
5/5 (1 vote)

Hard to play? Try these video lessons and learn fast.
                Seventeen Years - RATATAT

*Play with a Crunchy Overdrive/Distortion and with a pick with the mids rolled off for the tone.

Intro x4

G|-------------------|
D|-12----------------|
A|-----12--13--8--10-|
E|-------------------|


Verse x4

G|--------------------|
D|------12------------|
A|--13-----13--8--12--|
E|--------------------|


Intro x4

G|-------------------|
D|-12----------------|
A|-----12--13--8--10-|
E|-------------------|


Bridge

G|--------------------------------------------------------------|
D|--------------------------------------------------------------|
A|--1512--13--1215--13--1512--13--1215--13--1512--13--1215--13--|
E|--------------------------------------------------------------|


Outro

Part 1
G|----------------------------------------|
D|-15--12--17-------------15--12--17------|
A|-------------15----1315-------------15--|
E|----------------------------------------|

Part 2
G|-----------------|
D|-----7--8--------|
A|--810------8--5--|
E|-----------------|

Part 3 (until end of song, so about 5 times)
G|---------------------------------|
D|-15--12----------15-17-12--------|
A|---------15--13------------15--13|
E|---------------------------------|
            
Hard to play? Try these video lessons and learn fast. | Correct




comments powered by Disqus
↑ Back to top | Tablatures and chords are parodies/interpretations of the original songs. You may use it for private study, scholarship, research or language learning purposes only