» » »

Ratatat, Seventeen Years Bass tabs (ver.3)

Artists:  A B C D E F G H I J K L M N O P Q R S T U V W X Y Z # 

Seventeen Years Bass tabs (ver.3)

Ratatat Tabs
Rating:
0/5 (0 votes)
Seventeen Years lessons Tabs too difficult? Try these video lessons and learn fast
                Seventeen Years
Ratatat - Ratatat
Bass Tab

Dashes are 1/8 notes.
Main riff [00:13]

G|--------|--------|--------|--------| ||
D|0-------|--------|--------|--------|.||
A|--------|0-------|1-------|----0---|.||x4
E|--------|--------|--------|1-------| ||

G|--------|--------|--------|--------| ||
D|--------|0-------|--------|--------|.||
A|1-------|--------|1-------|----0---|.||x4
E|--------|--------|--------|1-------| ||

Then the first riff twice (x2)

Middle riff [02:19]
 
G|--|2-------|--------|--------|--------| ||
D|0-|--------|--------|--------|------0-|.||
A|--|--------|1------1|--------|0-------|.||x4
E|--|--------|--------|1-------|--------| ||

Ending riffs [02:42]

G|--------|--------|--------|--------|--------|--------|--------|--------|
D|--------|----7---|--------|----7---|--------|----7---|--------|--------|
A|8-------|7-------|5-------|------7-|8-------|7-------|5-------|--------|
E|--------|--------|--------|--------|--------|--------|--------|----5-6-|

G|--------|--------|--------|--------| ||
D|--------|--------|--------|--------|.||
A|--------|5-------|--------|--------|.||x8
E|8-------|--------|6-------|1-------| ||
            

comments powered by Disqus
↑ Back to top | Ratatat Bass for Seventeen Years. Lyrics for acoustic guitar and electric guitar. Tablatures and chords are parodies/interpretations of the original songs. You may use it for private study, scholarship, research or language learning purposes only