» » »

Rammstein, Spieluhr Bass tabs (ver.1)

Artists:  A B C D E F G H I J K L M N O P Q R S T U V W X Y Z # 

Spieluhr Bass tabs (ver.1)

Rammstein Tabs
Rating:
0/5 (0 votes)
Spieluhr  lessons Tabs too difficult? Try these video lessons and learn fast
                (2)

Rammstein - Spieluhr


  Tabs:

	 Intro:
	G|-----------|
	D|-----------|
	A|-----------|
	D|--3-0------|


	 Fill:
	G|-------------------|
	D|-------------------|
	A|-------------------|
	D|--3-0-0-3-0-0-3-0--|


	 Verse:
	G|-------------------|-------------------|-------------------|-------------------|
	D|-------------------|-------------------|-------------------|-------------------|
	A|-------------------|-------------------|-------------------|-------------------|
	D|--3-0-0-3-0-0-3-0--|--3-0-0-3-0-0-3-0--|--3-0-0-3-0-0-3-0--|--3-0-0-3-0-6-6-6--|


	 Chorus:
	G|-----------------------------------|-----------------------------------|
	D|-----------------------------------|-----------------------------------|
	A|-----------------------------------|--3-3-3-3-3-3-3-3-3-3-3-3-3-3-3-3--|
	D|--0-0-0-0-0-0-0-0-0-0-0-0-0-0-0-0--|-----------------------------------|

	G|-----------------------------------|-----------------------------------|
	D|-----------------------------------|-----------------------------------|
	A|--1-1-1-1-1-1-1-1-1-1-1-1-1/3-3-3--|-----------------------------------|
	D|-----------------------------------|--3-3-3-3-3-3-3-3-2-2-2-2-2-2-2-2--|


	 Chorus2:
	G|-----------------------------------|-----------------------------------|
	D|-----------------------------------|-----------------------------------|
	A|-----------------------------------|-----------------------------------|
	D|--0-0-0-0-0-0-0-0-0-0-0-0-0-0-0-0--|--2-2-2-2-2-2-2-2-2-2-2-2-2-2-2-2--|

	G|-----------------------------------|-----------------------------------|
	D|-----------------------------------|-----------------------------------|
	A|-----------------------------------|-----------------------------------|
	D|--3-3-3-3-3-3-3-3-3-3-3-3-3-3-3-3--|--3-3-3-3-3-3-3-3-2-2-2-2-2-2-2-2--|



   SongOrder:  
 
	Intro    1x
	Verse    7x          
 	Chorus   2x
	Fill     1x
        Verse    5x
	Chorus   2x
	Chorus2  1x
	Break    2x
	Chorus   1x
	Chorus2  2x
            

comments powered by Disqus
↑ Back to top | Rammstein Bass for Spieluhr. Lyrics for acoustic guitar and electric guitar. Tablatures and chords are parodies/interpretations of the original songs. You may use it for private study, scholarship, research or language learning purposes only