>
 >
Spieluhr 1

Spieluhr 1 Guitar Tabs

Rammstein - Spieluhr 1 chords, tabs, tablatures, lyrics

Guitar lessons | Add/correct | Request | Top 50 tabs Artists:  A B C D E F G H I J K L M N O P Q R S T U V W X Y Z 0-9

Spieluhr 1 Guitar Tabs – Rammstein

CD, Sheet music, Poster

Do you like Spieluhr 1? Share with your friends now
Bass TabsBass Tabs v2Bass Tabs v3TabsTabs v2Tabs v3Tabs v4Tabs v5Tabs v6

Tuning: Dropped D

                 Main Riff - Distorted all to Hell (This is Rammstein afterall)
e-|---------|---------------------------------|---------------------------------|
B-|---------|---------------------------------|---------------------------------|
G-|---------|---------------------------------|---------------------------------|
D-|---------|---------------------------------|---------------------------------|
A-|-3-------|-3-----3-----3---3-----3-----3---|-3-----3-----3---3-----3---6-6-6-|
D-|-3-0-0-0-|-3p0-0-3p0-0-3p0-3p0-0-3p0-0-3p0-|-3p0-0-3p0-0-3p0-3p0-0-3p0-6-6-6-|
       |
       Played once at beginning of song only

Second Riff - No distortion (It\'s the Main Riff with the bass notes taken out)
e-|---------------------------------|---------------------------------|
B-|---------------------------------|---------------------------------|
G-|---------------------------------|---------------------------------|
D-|---------------------------------|---------------------------------|
A-|-3-----3-----3---3-----3-----3---|-3-----3-----3---3-----3---6-6-6-|
D-|-3-----3-----3---3-----3-----3---|-3-----3-----3---3-----3---6-6-6-|

Chorus - Distorted
e-|-------|-----------------|-----------------|-----------------|-----------------|
B-|-------|-----------------|-----------------|-----------------|-----------------|
G-|-------|-----------------|-----------------|-----------------|-----------------|
D-|-------|-7-7-7-7-7-7-7-7-|-7-7-7-7-7-7-7-7-|-5-5-5-5-5-5-5-5-|-5-5-5-5-5-5-5-5-|
A-|-6-6-6-|-5-5-5-5-5-5-5-5-|-5-5-5-5-5-5-5-5-|-3-3-3-3-3-3-3-3-|-3-3-3-3-3-3-3-3-|
D-|-6-6-6-|-----------------|-----------------|-----------------|-----------------|
      |
           Played to lead into FIRST chorus only (It\'s actually the last part of the Main Riff)

e-|-----------------|-----------------|-------------------------|-----------------|
B-|-----------------|-----------------|-------------------------|-----------------|
G-|-----------------|-----------------|-------------------------|-----------------|
D-|-3-3-3-3-3-3-3-3-|-3-3-3-3-3-5-5-7-|-10-10-10-10-10-10-10-10-|-9-9-9-9-9-9-9-9-|
A-|-1-1-1-1-1-1-1-1-|-1-1-1-1-1-3-3-5-|--8--8--8--8--8--8--8--8-|-7-7-7-7-7-7-7-7-|
D-|-----------------|-----------------|-------------------------|-----------------|
 Solo
e-|-----------------|-----------------|-----------------|--------------------|
B-|-----------------|-----------------|-----------------|--------------------|
G-|-----------------|-----------------|-----------------|--------------------|
D-|-----------------|-----------------|-----------------|--------------------|
A-|-5-5-5-5-5-5-5-5-|-5-5-5-5-5-8-8-8-|-----------------|--------------------|
D-|-----------------|-----------------|-8-8-8-8-8-8-8-8-|-8-8-8-8-8-10-10-12-|

 e-|-------------------------|------------------|-------------------------|------------------|
D-|-------------------------|------------------|-------------------------|------------------|
G-|-------------------------|------------------|-------------------------|------------------|
D-|-------------------------|------------------|-------------------------|------------------|
A-|-12-12-12-12-12-12-12-12-|-12-8-8-8-8-8-8-8-|-10-10-10-10-10-10-10-10-|-10-7-7-7-7-7-7-7-|
D-|-------------------------|------------------|-------------------------|------------------|


Off
     Ein kleiner Mensch stirbt nur zum Schein
     wollte ganz alleine sein
     das kleine Herz stand still für Stunden
     so hat man es für tot befunden
     es wird verscharrt in nassem Sand
     mit einer Spieluhr in der Hand

Main Riff x 2

Off
     Der erste Schnee das Grab bedeckt
     hat ganz sanft das Kind geweckt
     in einer kalten Winternacht
     ist das kleine Herz erwacht

Main Riff

Off
     Als der Frost ins Kind geflogen
     hat es die Spieluhr aufgezogen
     eine Melodie im Wind
     und aus der Erde singt das Kind

Chorus
     Hoppe hoppe Reiter
     und kein Engel steigt herab
     mein Herz schlägt nicht mehr weiter
     nur der Regen weint am Grab

Chorus
     Hoppe hoppe Reiter
     eine Melodie im Wind
     mein Herz schlägt nicht mehr weiter
     und aus der Erde singt das Kind

Main Riff

Second Riff x 2
     Der kalte Mond in voller Pracht
     hört die Schreie in der Nacht
     und kein Engel steigt herab
     nur der Regen weint am Grab

Second Riff x 2
     Zwischen harten Eichendielen
     wird es mit der Spieluhr spielen
     eine Melodie im Wind
     und aus der Erde singt das Kind

Chorus
     Hoppe hoppe Reiter
     und kein Engel steigt herab
     mein Herz schlägt nicht mehr weiter
     nur der Regen weint am Grab

Chorus
     Hoppe hoppe Reiter
     eine Melodie im Wind
     mein Herz schlägt nicht mehr weiter
     und aus der Erde singt das Kind

Chorus
     Hoppe hoppe Reiter
     mein Herz schlägt nicht mehr weiter

Off
     Am Totensonntag hörten sie
     aus Gottes Acker diese Melodie
     da haben sie es ausgebettet
     das kleine Herz im Kind gerettet

Solo

Chorus
     Hoppe hoppe Reiter
     eine Melodie im Wind
     mein Herz schlägt nicht mehr weiter
     und auf der Erde singt das Kind

Chorus
     Hoppe hoppe Reiter
     und kein Engel steigt herab
     mein Herz schlägt nicht mehr weiter
     nur der Regen weint am Grab

Chorus
     Hoppe hoppe Reiter
     eine Melodie im Wind
     mein Herz schlägt nicht mehr weiter
     und auf der Erde singt das Kind





Comments


Popular Rammstein tabs & chords
Fever Frei 1 Bass Tabs
Stein Um Stein Bass Tabs
Waidmanns Heil 2 Bass Tabs
Fruhling In Paris 2 Chords
Das Alte Leid Tabs
Links 2 3 4 2 Tabs
Mein Herz Brennt 2 Tabs
Seeman 2 Tabs
Seemann 3 Tabs
Tier 2 Tabs


Song lyrics



↑ Back to top | Tablatures and chords are parodies/interpretations of the original songs. You may use it for private study, scholarship, research or language learning purposes only
© 2014 AZChords.com Contact us | Privacy policy | DMCA | Add/correct tabs | Request tabs | Top 50 tabs