» » »

Du Hast Tabs (ver.1)

Artists:  A B C D E F G H I J K L M N O P Q R S T U V W X Y Z # 

Du Hast Tabs (ver.1)

Rammstein
Rating:
0/5 (0 votes)

Hard to play? Try these video lessons and learn fast.
                PROPS GO TO: Gabe

/= slide up
\= slide down
pm= muffle with palm

!!use distortion!! (however you like it)

I got this version off the Matrix soundtrack, so it may sound a bit different.


PART A  [pm--------------]     [pm--------------------]
1|-----------------------------------------------------|
2|-----------------------------------------------------|
3|-----------------------------------------------------|
4|--7\5--2--2--2-2-2--2-2-7\5--2--2--2--2-2-2--2-2-2-2-|    play 3 times
5|--7\5--2--2--2-2-2--2-2-7\5--2--2--2--2-2-2--2-2-2-2-|
6|--5\3--0--0--0-0-0--0-0-5\3--0--0--0--0-0-0--0-0-0-0-|


PART B  [pm-----------------] 
1|--------------------------------
2|--------------------------------
3|--------------------------------
4|-5/7--7--7--7-7-7--7-7-7-7------
5|-5/7--7--7--7-7-7--7-7-7-7------
6|-3/5--5--5--5-5-5--5-5-5-5------


That happens a couple times in the song, here's the "chorus"


PART A, PART B, PART B, PART C, PART A

PART C   [pm-------------------]      [pm---------------------]
1|---------------------------------------------------------------
2|---------------------------------------------------------------
3|---------------------------------------------------------------
4|-7/10--10--10--10-10-10--10-10-12\9--9--9--9--9-9-9--9-9-9-9---
5|-7/10--10--10--10-10-10--10-10-12\9--9--9--9--9-9-9--9-9-9-9---
6|-5/8----8---8---8--8--8---8--8-10\7--7--7--7--7-7-7--7-7-7-7---

this song is pretty easy, once you get the hang of it.  It really helps to play with the radio or cd

sorry i couldn't get the words.  They go by kida quick, and i don't know German, so here it is.

-Gabe
            
Hard to play? Try these video lessons and learn fast. | Correct




comments powered by Disqus
↑ Back to top | Tablatures and chords are parodies/interpretations of the original songs. You may use it for private study, scholarship, research or language learning purposes only