» » »

Ich Will Tabs (ver.1)

Artists:  A B C D E F G H I J K L M N O P Q R S T U V W X Y Z # 

Ich Will Tabs (ver.1)

Rammstein
Rating:
0/5 (0 votes)

Hard to play? Try these video lessons and learn fast.
                This is an easy song i hope you like it.
Tuning: Drop D (D,A,D,G,B,e)


- Intro Riff 

Riff 1					         
e----------------------------------|             
b----------------------------------|             
g----------------------------------|             
D--0-0-0-0-0-X---0-0-0-0-0-0-0-0-X-|   x4        
A--5-5-5-5-5-X---5-5-5-5-5-5-5-5-X-|             
D--0-0-0-0-0-X---0-0-0-0-0-0-0-0-X-|             

   |---PM---|    |------PM------|

Ending
Then you end whit...

e---------------------|
b---------------------|
g---------------------|
D--5-5-5--3-3-3---1p0-|
A--5-5-5--3-3-3---1p0-|
D--5-5-5--3-3-3---1p0-|


Riff 2 - Verse - This is only in the second verse because there's no guitar in the first

e---------------------------------|
b---------------------------------|
g---------------------------------| you know what i mean...
D---0-0-0-0-0------0-0-0-0-0------|
A---5-5-5-5-5------5-5-5-5-5------|
D---0-0-0-0-0------0-0-0-0-0------|
   |----PM---|	  |----PM---|
     ich will       ich will


Riff 3 

e----------------------------------------------------------|
b----------------------------------------------------------|
g----------------------------------------------------------|
D-0~~~--8-8-8-5-7~~-----0~~~--8-8-8-10-7-------------------|
A-0~~~--8-8-8-5-7~~-----0~~~--8-8-8-10-7-------------------|
D-0~~~--8-8-8-5-7~~-----0~~~--8-8-8-10-7-------------------|


Riff 4 (Clean tone)

e--------------------------------------------------------------|
b--------------------------------------------------------------|
g--------------------------------------------------------------|
D------0-------0-------0-------0-------8-------8-------8---8-7-|
A----0---0---0---0---0---0---0---0---8---8---8---8---8---8-8-7-|
D--0-------0-------0-------0-------8-------8-------8-------8-7-|

e---------------------------------------------------------------|
b---------------------------------------------------------------|
g---------------------------------------------------------------|
D-----5-------5-------5-------5-------7-------7-------7-------7-|
A---5---5---5---5---5---5---5---5---7---7---7---7---7---7---7---|
D-5-------5-------5-------5-------7-------7-------7-------7-----|


Order

Riff 1 x4 (then, ending)
Verse (no guitar)
Riff 1 x4 (then, ending)
Verse - Riff 2
Riff 3 x4
Riff 1 x4 (then, ending)
Riff 4
Riff 3 x8
Riff 1 x4

If you have any question or coment please let me know it at my mail.
(It's on the top of the page)
            
Hard to play? Try these video lessons and learn fast. | Correct




comments powered by Disqus
↑ Back to top | Tablatures and chords are parodies/interpretations of the original songs. You may use it for private study, scholarship, research or language learning purposes only