>
 >
Adios

Adios Guitar Tabs

Rammstein - Adios chords, tabs, tablatures, lyrics

Guitar lessons | Add/correct | Request | Top 50 tabs Artists:  A B C D E F G H I J K L M N O P Q R S T U V W X Y Z 0-9

Adios Guitar Tabs – Rammstein

CD, Sheet music, Poster

Do you like Adios? Share with your friends now
Bass TabsBass Tabs v2TabsTabs v2Tabs v3Tabs v4Tabs v5Tabs v6
-------------------------------------------------------------------------------
                             Adios-Rammstein
-------------------------------------------------------------------------------

Tuning:Drop D
Riff 1 guitar 1&2
e|---------------------------------------------------------------------------|
B|---------------------------------------------------------------------------|
G|---------------------------------------------------------------------------|
D|---------1010101010\-121212/-777777777777777/55-4--------------------------|
A|88888888-8-8-8-8-8-\-101010/-555555555555555/33-2--------------------------|
D|88888888-------------------------------------------------------------------|

e|---------------------------------------------------------------------------|
B|---------------------------------------------------------------------------|
G|---------------------------------------------------------------------------|
D|----------1010101010\-121212/-777777777777777------------------------------|
A|-88888888-8-8-8-8-8-\-101010/-555555555555555------------------------------|
D|-88888888------------------------------------------------------------------|

Riff 2 guitar 1&2
e|---------------------------------------------------------------------------|
B|---------------------------------------------------------------------------|
G|--5-7----------------------------------------------------------------------|
D|--5-7----------------------------------------------------------------------|
A|3-3-5-------------3h5--------------3h5-------------------------------------|
D|3-----0-0-0-0-0-0------0-0-0-0-0-0-----0-0-0-0-0-0-0-0---------------------|

e|---------------------------------------------------------------------------|
B|---------------------------------------------------------------------------|
G|--5-7----------------------------------------------------------------------|
D|--5-7----------------------------------------------------------------------|
A|3-3-5-------------3h5--------------3h5-------------------------------------|
D|3-----0-0-0-0-0-0------0-0-0-0-0-0-----0-0-0-0-0-0-0-0---------------------|


e|---------------------------------------------------------------------------|
B|---------------------------------------------------------------------------|
G|--5-7----------------------------------------------------------------------|
D|--5-7----------------------------------------------------------------------|
A|3-3-5-------------3h5--------------3h5-------------------------------------|
D|3-----0-0-0-0-0-0------0-0-0-0-0-0-----0-0-0-0-0-0-0-0---------------------|

e|---------------------------------------------------------------------------|
B|---------------------------------------------------------------------------|
G|--5-7----------------------------------------------------------------------|
D|--5-7----------------------------------------------------------------------|
A|3-3-5-------------3h5--------------3h5-------------------------------------|
D|3-----0-0-0-0-0-0------0-0-0-0-0-0-----0-0-0-0-0-0-0-0---------------------|

Riff 3 guitar 1&2
e|---------------------------------------------------------------------------|
B|---------------------------------------------------------------------------|
G|--5-7--]\------------------------------------------------------------------|
D|--5-7--]-\-x4--------------------------------------------------------------|
A|3-3-5--]-/-----------------------------------------------------------------|
D|3------]/------------------------------------------------------------------|

riff 2 x3 guitar 1&2
e|---------------------------------------------------------------------------|
B|---------------------------------------------------------------------------|
G|--5-7----------------------------------------------------------------------|
D|--5-7----------------------------------------------------------------------|
A|3-3-5-------------3h5--------------3h5-------------------------------------|
D|3-----0-0-0-0-0-0------0-0-0-0-0-0-----0-0-0-0-0-0-0-0---------------------|

e|---------------------------------------------------------------------------|
B|---------------------------------------------------------------------------|
G|--5-7----------------------------------------------------------------------|
D|--5-7----------------------------------------------------------------------|
A|3-3-5-------------3h5--------------3h5-------------------------------------|
D|3-----0-0-0-0-0-0------0-0-0-0-0-0-----0-0-0-0-0-0-0-0---------------------|

e|---------------------------------------------------------------------------|
B|---------------------------------------------------------------------------|
G|--5-7----------------------------------------------------------------------|
D|--5-7----------------------------------------------------------------------|
A|3-3-5-------------3h5--------------3h5-------------------------------------|
D|3-----0-0-0-0-0-0------0-0-0-0-0-0-----0-0-0-0-0-0-0-0---------------------|

Riff 3 guitar 1&2
e|-------------------------------------------------------------------------------|
B|-------------------------------------------------------------------------------|
G|--5-7--]\----------------------------------------------------------------------|
D|--5-7--]-\-x4---------5\7------------------------------------------------------|
A|3-3-5--]-/------------3\5------------------------------------------------------|
D|3------]/----------------------------------------------------------------------|

e|---------------------------------------------------------------------------|
B|---------------------------------------------------------------------------|
G|--5-7----------------------------------------------------------------------|
D|--5-7----------------------------------------------------------------------|
A|3-3-5-------------3h5--------------3h5-------------------------------------|
D|3-----0-0-0-0-0-0------0-0-0-0-0-0-----0-0-0-0-0-0-0-0---------------------|

e|---------------------------------------------------------------------------|
B|---------------------------------------------------------------------------|
G|--5-7----------------------------------------------------------------------|
D|--5-7----------------------------------------------------------------------|
A|3-3-5-------------3h5--------------3h5-------------------------------------|
D|3-----0-0-0-0-0-0------0-0-0-0-0-0-----0-0-0-0-0-0-0-0---------------------|

e|---------------------------------------------------------------------------|
B|---------------------------------------------------------------------------|
G|--5-7----------------------------------------------------------------------|
D|--5-7----------------------------------------------------------------------|
A|3-3-5-------------3h5--------------3h5-------------------------------------|
D|3-----0-0-0-0-0-0------0-0-0-0-0-0-----0-0-0-0-0-0-0-0---------------------|

e|---------------------------------------------------------------------------|
B|---------------------------------------------------------------------------|
G|--5-7-------------------------------------------------------5\-------------|
D|--5-7-------------------------------------------------------5\-------------|
A|3-3-5-------------3h5--------------3h5--------------------3-3--------------|
D|3-----0-0-0-0-0-0------0-0-0-0-0-0-----0-0-0-0-0-0-0-0----3----------------|

Riff 1 guitar 1&2
e|---------------------------------------------------------------------------|
B|---------------------------------------------------------------------------|
G|---------------------------------------------------------------------------|
D|---------1010101010\-121212/-777777777777777/55-4--------------------------|
A|88888888-8-8-8-8-8-\-101010/-555555555555555/33-2--------------------------|
D|88888888-------------------------------------------------------------------|


e|---------------------------------------------------------------------------|
B|---------------------------------------------------------------------------|
G|---------------------------------------------------------------------------|
D|---------1010101010\-121212/-7~~~~~----------------------------------------|
A|88888888-8-8-8-8-8-\-101010/-5~~~~~----------------------------------------|
D|88888888-------------------------------------------------------------------|

Riff 1 w/distortion guitar 1&2
e|---------------------------------------------------------------------------|
B|---------------------------------------------------------------------------|
G|---------------------------------------------------------------------------|
D|---------1010101010\-121212/-777777777777777/55-4--------------------------|
A|88888888-8-8-8-8-8-\-101010/-555555555555555/33-2--------------------------|
D|88888888-------------------------------------------------------------------|

e|---------------------------------------------------------------------------|
B|---------------------------------------------------------------------------|
G|---------------------------------------------------------------------------|
D|----------1010101010\-121212/-777777777777777------------------------------|
A|-88888888-8-8-8-8-8-\-101010/-555555555555555------------------------------|
D|-88888888------------------------------------------------------------------|

solo guitar 1
e|----------------------------------------------------------------------------|
B|----------------------------------------------------------------------------|
G|12-14-14--12-14-14--12-14-14--12-10--12-14-14--12-14-14--12-14-14-14-12-10--|
D|-----------------------------------0--------------------------------------0-|
A|----------------------------------------------------------------------------|
D|----------------------------------------------------------------------------|

guitar 2
e|---------------------------------------------------------------------------|
B|---------------------------------------------------------------------------|
G|---------------------------------------------------------------------------|
D|---------------------------------------------------------------------------|
A|3~~~~~-----------------------------------3~~~~-----------------------------|
D|3~~~~~-----------------------------------3~~~~-----------------------------|

guitar 1
e|---------------------------------------------------------------------------|
B|---------------------------------------------------------------------------|
G|12-14-14---12-14-14---12-14-14---12-14-14---12-14-14---12-14-14->>>>>>>----|
D|---------------------------------------------------------------------------|
A|---------------------------------------------------------------------------|
D|---------------------------------------------------------------------------|

guitar 2
e|---------------------------------------------------------------------------|
B|---------------------------------------------------------------------------|
G|---------------------------------------------------------------------------|
D|---------------------------------------------------------------------------|
A|3~~~~-------3~~~~~-------3~~~~~--------3~~~~-------------------------------|
D|3~~~~-------3~~~~~-------3~~~~~--------3~~~~-------0-0-0-0-0-0-0-0-0-0-0---|

e|-----------------------------------------------------------------------------|
B|-----------------------------------------------------------------------------|
G|12-14-14-14-12-10------------------------------------------------------------|
D|-----------------0-----------------------------------------------------------|
A|-----------------------------------------------------------------------------|
D|-----------------------------------------------------------------------------|

e|x4--------------------------------------------------------------------------|
B|----------------------------------------------------------------------------|
G|12-14-14--12-14-14--12-14-14--12-10--12-14-14--12-14-14--12-14-14-14-12-10--|
D|-----------------------------------0--------------------------------------0-|
A|----------------------------------------------------------------------------|
D|----------------------------------------------------------------------------|

solo Rhythm x4
e|---------------------------------------------------------------------------|
B|---------------------------------------------------------------------------|
G|--5-7----------------------------------------------------------------------|
D|--5-7----------------------------------------------------------------------|
A|3-3-5-------------3h5--------------3h5-------------------------------------|
D|3-----0-0-0-0-0-0------0-0-0-0-0-0-----0-0-0-0-0-0-0-0---------------------|

Riff 1 w/distortion guitar 1&2
e|---------------------------------------------------------------------------|
B|---------------------------------------------------------------------------|
G|---------------------------------------------------------------------------|
D|---------1010101010\-121212/-777777777777777/55-4--------------------------|
A|88888888-8-8-8-8-8-\-101010/-555555555555555/33-2--------------------------|
D|88888888-------------------------------------------------------------------|

e|---------------------------------------------------------------------------|
B|---------------------------------------------------------------------------|
G|---------------------------------------------------------------------------|
D|---------1010101010\-121212/-777777777777777/55-4--------------------------|
A|88888888-8-8-8-8-8-\-101010/-555555555555555/33-2--------------------------|
D|88888888-------------------------------------------------------------------|

e|---------------------------------------------------------------------------|
B|---------------------------------------------------------------------------|
G|---------------------------------------------------------------------------|
D|---------1010101010\-121212/-777777777777777/55-4--------------------------|
A|88888888-8-8-8-8-8-\-101010/-555555555555555/33-2--------------------------|
D|88888888-------------------------------------------------------------------|

e|---------------------------------------------------------------------------|
B|---------------------------------------------------------------------------|
G|---------------------------------------------------------------------------|
D|----------1010101010\-121212/-777777777777777------------------------------|
A|-88888888-8-8-8-8-8-\-101010/-555555555555555------------------------------|
D|-88888888------------------------------------------------------------------|

e|---------------------------------------------------------------------------|
B|---------------------------------------------------------------------------|
G|---------------------------------------------------------------------------|
D|---------------10-10-10-10-10\12-12-12-12/--7~~~~--------------------------|
A|8-8-8-8-8-8-8--8--8--8--8--8-\10-10-10-10/--5~~~~--------------------------|
D|8-8-8-8-8-8-8--------------------------------------------------------------|


************************************

| /   slide up
| \   slide down
| h   hammer-on
| p   pull-off
| +   harmonic
| x   Mute note
| b   Bend
| pb  Pre-bend
| br  Bend release
| pbr Pre-bend release
| brb Bend release bend

************************************





Comments


Popular Rammstein tabs & chords
Spieluhr 3 Bass Tabs
Das Alte Leid 4 Tabs
Engel Tabs
Feuer Frei 4 Tabs
Fire Free Tabs
Fuhre Mich Tabs
Ich Will 3 Tabs
Klavier 1 Tabs
Zerstoren Tabs
Asche Zu Asche Ukulele


Song lyrics



↑ Back to top | Tablatures and chords are parodies/interpretations of the original songs. You may use it for private study, scholarship, research or language learning purposes only
© 2014 AZChords.com Contact us | Privacy policy | DMCA | Add/correct tabs | Request tabs | Top 50 tabs