» » »

Rammstein, Spiel Mit Mir Tabs (ver.3)

Artists:  A B C D E F G H I J K L M N O P Q R S T U V W X Y Z # 

Spiel Mit Mir Tabs (ver.3)

Rammstein Tabs
 Rating:
4/5 (4 votes)
Spiel Mit Mir lessons Tabs too difficult? Try these video lessons and learn fast
1
                Rammstein - Spiel Mit Mir
Standard Rammstein tuning: E-A-D-G-B-E

Verse
-----------------------------|---------------------- 
-----------------------------|----------------------
-----------------------------|---------------------- 
------------2----------------|---------------------- 
----2-2-2---2--2-2-2--2-2-2--|-2-2-2--2-2--3-3--3-3-
----0-0-0------0-0-0--0-0-0--|-0-0-0--0-0--1-1--1-1-
x2

Pre-Chorus
-----------------------------|--------------------------
-----------------------------|--------------------------
-----------------------------|-------------------------- 
------------7----------------|-------------------------- 
----7-7-7---7--7-7-7--7-7-7--|-7-7-7--7-7--8-8-8--5-5-5-
----5-5-5------5-5-5--5-5-5--|-5-5-5--5-5--6-6-6--3-3-3-
x2

2nd Verse
-----------------------------|---------------------- 
-----------------------------|----------------------
-----------------------------|---------------------- 
------------2----------------|---------------------- 
----2-2-2---2--2-2-2--2-2-2--|-2-2-2--2-2--3-3--3-3-
----0-0-0------0-0-0--0-0-0--|-0-0-0--0-0--1-1--1-1-

Pre-Chorus
-----------------------------|--------------------------
-----------------------------|--------------------------
-----------------------------|-------------------------- 
------------7----------------|-------------------------- 
----7-7-7---7--7-7-7--7-7-7--|-7-7-7--7-7--8-8-8--5-5-5-
----5-5-5------5-5-5--5-5-5--|-5-5-5--5-5--6-6-6--3-3-3-

Chorus
-----------------------------|--------------------------
-----------------------------|--------------------------
-----------------------------|-------------------------- 
----4-4-4--------------------|-------------------------- 
----2-2-2--2-2-2--2-2-2------|-7-7-7--7-7--3-3-3--2-2-2-
-----------0-0-0--0-0-0------|-5-5-5--5-5--1-1-1--0-0-0-
x2

end of Chorus (vator, mutter, kind)
-----------------------------|--------------------------
-----------------------------|--------------------------
-----------------------------|-------------------------- 
----4-4-4--------------------|-------------3------------ 
----2-2-2--2-2-2--2-2-2------|-2-2-2--2-2--3---2--------
-----------0-0-0--0-0-0------|-0-0-0--0-0--1---0--------

Solo (with disortion)
--------------------------------------|--------------------------------------
-0-12-0-12-0-12-0-12-0-12-0-12-0-12-0-|-0-12-0-12-0-12-0-12-0-12-0-12-0-12-0-
--------------------------------------|--------------------------------------
--------------------------------------|-------------------------------------- 
--------------------------------------|--------------------------------------
--------------------------------------|--------------------------------------

--------------------------------------|----------------------------------------
-0-12-0-12-0-12-0-12-0-12-0-12-0-12-0-|-0-12-0-12-0-12-0-12-0-12-0-12-0-12-0-15
--------------------------------------|----------------------------------------
--------------------------------------|----------------------------------------
--------------------------------------|----------------------------------------
--------------------------------------|----------------------------------------

Verse again
-----------------------------|---------------------- 
-----------------------------|----------------------
-----------------------------|---------------------- 
------------2----------------|---------------------- 
----2-2-2---2--2-2-2--2-2-2--|-2-2-2--2-2--3-3--3-3-
----0-0-0------0-0-0--0-0-0--|-0-0-0--0-0--1-1--1-1-
x2

Pre-Chorus
-----------------------------|--------------------------
-----------------------------|--------------------------
-----------------------------|-------------------------- 
------------7----------------|-------------------------- 
----7-7-7---7--7-7-7--7-7-7--|-7-7-7--7-7--8-8-8--5-5-5-
----5-5-5------5-5-5--5-5-5--|-5-5-5--5-5--6-6-6--3-3-3-

Chorus
-----------------------------|--------------------------
-----------------------------|--------------------------
-----------------------------|-------------------------- 
----4-4-4--------------------|-------------------------- 
----2-2-2--2-2-2--2-2-2------|-7-7-7--7-7--3-3-3--2-2-2-
-----------0-0-0--0-0-0------|-5-5-5--5-5--1-1-1--0-0-0-
x2

-----------------------------|--------------------------
-----------------------------|--------------------------
-----------------------------|-------------------------- 
----4-4-4--------------------|-------------3------------ 
----2-2-2--2-2-2--2-2-2------|-2-2-2--2-2--3---2--------
-----------0-0-0--0-0-0------|-0-0-0--0-0--1---0--------
            
Submit corrections

comments powered by Disqus
↑ Back to top | Rammstein Tabs for Spiel Mit Mir. Lyrics for acoustic guitar and electric guitar. 1 Tablatures and chords are parodies/interpretations of the original songs. You may use it for private study, scholarship, research or language learning purposes only