» » »

Rammstein, Spiel Mit Mir Tabs (ver.2)

Artists:  A B C D E F G H I J K L M N O P Q R S T U V W X Y Z # 

Spiel Mit Mir Tabs (ver.2)

Rammstein Tabs
 Rating:
4/5 (4 votes)
Spiel Mit Mir lessons Tabs too difficult? Try these video lessons and learn fast
1
                Spiel Mit Mir
R A M M S T E I N


great song from Sehnshuct

KEY:
pm. = palm mute
p   = pull-off
W   = wide vibrato
/   = slide up

MAIN RIFF:
e|------------------------------------------------|
B|------------------------------------------------|
G|------------------------------------------------|
D|------------------------------------------------|
A|-2-2-2---2-2-2-2--2-2-2---2-2-2--2-2-2-3-3--3-3-|
E|-0-0-0---0-0-0-0--0-0-0---0-0-0--0-0-0-1-1--1-1-|
pm . . .     . . .  . . .   . . .  . . . . .  . .

ANOTHER RIFF (CHORUS?):
e|-----------------------------------------------|
B|-----------------------------------------------|
G|-----------------------------------------------|
D|-2-2-2--2-2-2-2--2-2-2--2-2-2--2-2---3-3-------|
A|-0-0-0--0-0-0-0--0-0-0--0-0-0--0-0---1-1---5-5-|
E|-------------------------------------------3-3-|
pm . . .    . . .  . . .  . . .  . .   . .   . .

YET ANOTHER RIFF (POST-CHORUS?):
e|-----------------------------------------------------|
B|-----------------------------------------------------|
G|-----------------------------------------------------|
D|-4-4-4--4-4-----------------2-2-2--2-2---------------|
A|-2-2-2--2-2-2--2-2-2--2-2---0-0-0--0-0-3--3-3-2--2-2-|
E|------------0--0-0-0--0-0--------------1--1-1-0--0-0-|
pm . . .  . . .  . . .  . .   . . .  . . .  . . .  . .

SOLO:
*THE SOLO IS ALL PULLOFFS (TO OPEN NOTE). THIS IS CORRECT FOR CONTENT,*
     *BUT I'M NOT SURE ABOUT THE NO. OF TIMES PLAYED. IT'S CLOSE.*
e|---------------------------------------------------------------------------------->
B|-12-12-12-12-12-12-12-12-11-12-12-12-12-12-12-12-11-12-12-12-12-12-12-12-12-12-12->
G|---------------------------------------------------------------------------------->
D|---------------------------------------------------------------------------------->
A|---------------------------------------------------------------------------------->
E|---------------------------------------------------------------------------------->

<---------------------------------------------------------------------------------->
<-12-12-11-11-11-11-12-12-12-12-12-12-12-11-12-12-12-12-12-12-12-12-11-12-12-12-12->
<---------------------------------------------------------------------------------->
<---------------------------------------------------------------------------------->
<---------------------------------------------------------------------------------->
<---------------------------------------------------------------------------------->

<----------------------->
<-12-12-12-12-12/15WWWW->
<----------------------->
<----------------------->
<----------------------->
<----------------------->

Yeh.
            
Submit corrections

comments powered by Disqus
↑ Back to top | Rammstein Tabs for Spiel Mit Mir. Lyrics for acoustic guitar and electric guitar. 1 Tablatures and chords are parodies/interpretations of the original songs. You may use it for private study, scholarship, research or language learning purposes only