» » »

Speil Mit Mir Tabs (ver.2)

Artists:  A B C D E F G H I J K L M N O P Q R S T U V W X Y Z # 

Speil Mit Mir Tabs (ver.2)

Rammstein
Rating:
0/5 (0 votes)

Hard to play? Try these video lessons and learn fast.
                This is my second version of Speil Mit Mir.  I recently receive and e-mail
that said the actual notes should be shown for the keyboard, so this tab
is all of the keyboard with all the notes.  You'll have to know what octave
each note is played on because it's hard to show it.  It is transulated 
into guitar, also.  If you play guitar, check out the original version for 
the guitar as well as keyboard transulated into guitar.
Tab #10

Tempo: 78

Intro
                                                                   9x
||--------------------------------|--------------------------------||
||*-------------------------------|-------------------------------*||
||*-------------------------------|-------------------------------*||
||--------------------------------|--------------------------------||
||--------------------------------|--------------------------------||
||0<------------------------------(0)------------------------------||
  E


|--------------------------------|--------------------------------|
|--------------------------------|----1110--------11109-----------|
|--------------------------------|9-10--------9-10----------------|
|--------------------------------|--------------------------------|
|--------------------------------|--------------------------------|
|0-------------------------------(0)------------------------------|
 E                                E F A A     E F A A G
                                      #           #   #

Verse

|--------------------------------|------------------------------8-|
|--------------------------------|----1110--------11109-------8---|
|--------------------------------|9-10--------9-10----------8-----|
|--------------------------------|------------------------10------|
|--------------------------------|--------------------------------|
|--------------------------------|--------------------------------|
                                  E F A A     E F A A G   C D G C
                                      #           #   #     #

|--------------------------------|--------------------------------|
|--------------------------------|----1110--------11109-------9-8-|
|--------------------------------|9-10--------9-10----------8-----|
|--------------------------------|------------------------10------|
|--------------------------------|--------------------------------|
|--------------------------------|--------------------------------|
                                  E F A A     E F A A G   C D G G
                                      #           #   #     # #

|--------------------------------|------------------------------7-|
|--------------------------------|----1110--------11109-------7---|
|--------------------------------|9-10--------9-10----------7-----|
|--------------------------------|------------------------9-------|
|--------------------------------|--------------------------------|
|--------------------------------|--------------------------------|
                                  E F A A     E F A A G   B D F B
                                      #           #   #       #

|--------------------------------|--------------------------------|
|--------------------------------|----1110--------11109-----------|
|--------------------------------|9-10--------9-10----------------|
|--------------------------------|--------------------------------|
|--------------------------------|--------------------------------|
|--------------------------------|--------------------------------|
                                  E F A A     E F A A G
                                      #           #   #

|--------------------------------|--------------------------------|
|--------------------------------|----------------Different-Sound-|
|2<------------------------------(2)--------------3-------0-------|
|--------------------------------|--------------------------------|
|--------------------------------|--------------------------------|
|--------------------------------|--------------------------------|
 A                                                A       G
                                                  #

|--------------------------------|--------------------------------|
|--------------------------------|---------Different Sound--------|
|2<------------------------------(2)--------------3--(X-X-X-X-X-X)|
|--------------------------------|--------------------Techno Thingy
|--------------------------------|--------------------------------|
|--------------------------------|--------------------------------|
 A                                                A
                                                  #

Verse

|--------------------------------|------------------------------8-|
|--------------------------------|----1110--------11109-------8---|
|--------------------------------|9-10--------9-10----------8-----|
|--------------------------------|------------------------10------|
|--------------------------------|--------------------------------|
|--------------------------------|--------------------------------|
                                  E F A A     E F A A G   C D G C
                                      #           #   #     #

|--------------------------------|--------------------------------|
|--------------------------------|----1110--------11109-------9-8-|
|--------------------------------|9-10--------9-10----------8-----|
|--------------------------------|------------------------10------|
|--------------------------------|--------------------------------|
|--------------------------------|--------------------------------|
                                  E F A A     E F A A G   C D G G
                                      #           #   #     # #

|--------------------------------|------------------------------7-|
|--------------------------------|----1110--------11109-------7---|
|--------------------------------|9-10--------9-10----------7-----|
|--------------------------------|------------------------9-------|
|--------------------------------|--------------------------------|
|--------------------------------|--------------------------------|
                                  E F A A     E F A A G   B D F B
                                      #           #   #       #

|--------------------------------|--------------------------------|
|--------------------------------|----1110--------11109-----------|
|--------------------------------|9-10--------9-10----------------|
|--------------------------------|--------------------------------|
|--------------------------------|--------------------------------|
|--------------------------------|--------------------------------|
                                  E F A A     E F A A G
                                      #           #   #

|--------------------------------|--------------------------------|
|--------------------------------|----------------Different-Sound-|
|2<------------------------------(2)--------------3-------0-------|
|--------------------------------|--------------------------------|
|--------------------------------|--------------------------------|
|--------------------------------|--------------------------------|
 A                                                A       G
                                                  #

|--------------------------------|--------------------------------|
|--------------------------------|----------------Different Sound-|
|2<------------------------------(2)--------------3---------------|
|--------------------------------|--------------------------------|
|--------------------------------|--------------------------------|
|--------------------------------|--------------------------------|
 A                                                A
                                                  #

Chorus

|--------------------------------|--------------------------------|
|--------------------------------|--------------------------------|
|----7---9---7-------------------|--------------------------------|
|9-------------------5---9---5---|7---------------9---10--9---5---|
|----------------7---------------|--------------------------------|
|--------------------------------|--------------------------------|
 B   D   E   D   E   G   B   G    A               B   C   B   G


|--------------------------------|--------------------------------|
|--------------------------------|--------------------------------|
|----7---9---7-------------------|----------------10------9-------|
|9-------------------5---9---5---|7-------------------------------|
|----------------7---------------|--------------------------------|
|--------------------------------|--------------------------------|
 B   D   E   D   E   G   B   G    A               F       E


|--------------------------------|--------------------------------|
|--------------------------------|--------------------------------|
|----7---9---7-------------------|--------------------------------|
|9-------------------5---9---5---|7---------------9---10--9---5---|
|----------------7---------------|--------------------------------|
|--------------------------------|--------------------------------|
 B   D   E   D   E   G   B   G    A               B   C   B   G


|--------------------------------|--------------------------------|
|--------------------------------|--------------------------------|
|----7---9---7-------------------|--------------------------------|
|9-------------------5---9---5---|7---------------3-------2-------|
|----------------7---------------|--------------------------------|
|--------------------------------|--------------------------------|
 B   D   E   D   E   G   B   G    A               F       E


	Free Time

|--------------------------------|--------------------------------|
|--------------------------------|--------------------------------|
|--------------------------------|--------------------------------|
|--------------------------------|--------------------------------|
|--------------------------------|6------(6)-7--(7)---------------|
|5-------------------------------|-----------------------6--------|
 A                                D          E           A
                                  #                      #

|--------------------------------|--------------------------------|
|--------------------------------|--------------------------------|
|--------------------------------|--------------------------------|
|--------------------------------|--------------------------------|
|--------------------------------|--------------------------------|
(6)--5---------------------------|3------(3)--2--(2)------1-------|
     A                            G           F           F
                                              #

Solo Part

|--------------------------------|--------------------------------|
|--------------------------------|--------------------------------|
|--------------------------------|--------------------------------|
|--------------------------------|--------------------------------|
|--------------------------------|--------------------------------|
|0-------------------------------|6------(6)--7--(7)------1-------|
 E                                A           B           F
                                  #

|--------------------------------|--------------------------------|
|--------------------------------|--------------------------------|
|--------------------------------|--------------------------------|
|--------------------------------|--------------------------------|
|--------------------------------|--------------------------------|
(1)--0--(0)----------------------(0)-------------(0)--1--(1)--2---|
     E                                                F       F
                                                              #

|--------------------------------|--------------------------------|
|--------------------------------|--------------------------------|
|--------------------------------|--------------------------------|
|--------------------------------|--------------------------------|
|--------------------------------|4------(4)--5--(5)--------------|
(2)--3--(3)----------------------|------------------------4-------|
     G                            C           D           G
                                  #                       #

|--------------------------------|--------------------------------|
|--------------------------------|--------------------------------|
|--------------------------------|--------------------------------|
|--------------------------------|--------------------------------|
|--------------------------------|--------------------------------|
(4)--3--(3)----------------------(3)--------------4---------------|
     G                                            G
                                                  #

Verse

|--------------------------------|--------------------------------|
|--------------------------------|--------------------------------|
|--------------------------------|--------------------------------|
|--------------------------------|--------------------------------|
|--------------------------------|--------------------------------|
|0-------------------------------|6------(6)--7--(7)------1-------|
 E                                A           B           F
                                  #

|--------------------------------|--------------------------------|
|--------------------------------|--------------------------------|
|--------------------------------|--------------------------------|
|--------------------------------|--------------------------------|
|--------------------------------|--------------------------------|
(1)--0--(0)----------------------(0)--------------1-------2-------|
     E                                            F       F
                                                          #

|--------------------------------|--------------------------------|
|--------------------------------|--------------------------------|
|--------------------------------|--------------------------------|
|--------------------------------|--------------------------------|
|--------------------------------|4------(4)--5--(5)--------------|
|3-------------------------------|------------------------4-------|
 G                                C           D           G
                                  #                       #

|--------------------------------|--------------------------------|
|--------------------------------|--------------------------------|
|--------------------------------|--------------------------------|
|--------------------------------|--------------------------------|
|--------------------------------|--------------------------------|
(4)--3--(3)----------------------(3)--------------4---------------|
     G                                            G         
                                                  #

|--------------------------------|--------------------------------|
|--------------------------------|--------------------------------|
|--------------------------------|--------------------------------|
|--------------------------------|--------------------------------|
|--------------------------------|--------------------------------|
|5-------------------------------(5)--------------6-------3-------|
 A                                                A       G
                                                  #

|--------------------------------|--------------------------------|
|--------------------------------|--------------------------------|
|--------------------------------|--------------------------------|
|--------------------------------|-----------------Techno Thingy--|
|--------------------5---3-------|-------------------(X-X-X-X-X-X)|
|5---------------------------5---(5)--------------6---------------|
 A                   D   C   A                    A
                                                  #

Chorus

|--------------------------------|--------------------------------|
|--------------------------------|--------------------------------|
|----7---9---7-------------------|--------------------------------|
|9-------------------5---9---5---|7---------------9---10--9---5---|
|----------------7---------------|--------------------------------|
|--------------------------------|--------------------------------|
 B   D   E   D   E   G   B   G    A               B   C   B   G


|--------------------------------|--------------------------------|
|--------------------------------|--------------------------------|
|----7---9---7-------------------|----------------10------9-------|
|9-------------------5---9---5---|7---------------10------9-------|
|----------------7---------------|--------------------------------|
|--------------------------------|--------------------------------|
 B   D   E   D   E   G   B   G    A               F       E
                                                  C       B

|--------------------------------|--------------------------------|
|--------------------------------|--------------------------------|
|----7---9---7-------------------|--------------------------------|
|9-------------------5---9---5---|7---------------9---10--9---5---|
|----------------7---------------|--------------------------------|
|--------------------------------|--------------------------------|
 B   D   E   D   E   G   B   G    A               B   C   B   G


|--------------------------------|--------------------------------|
|--------------------------------|--------------------------------|
|----7---9---7-------------------|--------------------------------|
|9-------------------5---9---5---|7---------------3-------2-------|
|----------------7---------------|--------------------------------|
|--------------------------------|--------------------------------|
 B   D   E   D   E   G   B   G    A               F       E


|--------------------------------|--------------------------------|
|--------------------------------|--------------------------------|
|----7---9---7-------------------|--------------------------------|
|9-------------------5---9---5---|7---------------9---10--9---5---|
|----------------7---------------|--------------------------------|
|--------------------------------|--------------------------------|
 B   D   E   D   E   G   B   G    A               B   C   B   G


|--------------------------------|--------------------------------|
|--------------------------------|--------------------------------|
|----7---9---7-------------------|----------------10------9-------|
|9-------------------5---9---5---|7-------------------------------|
|----------------7---------------|--------------------------------|
|--------------------------------|--------------------------------|
 B   D   E   D   E   G   B   G    A               F       E


|--------------------------------|--------------------------------|
|--------------------------------|--------------------------------|
|----7---9---7-------------------|--------------------------------|
|9-------------------5---9---5---|7---------------9---10--9---5---|
|----------------7---------------|--------------------------------|
|--------------------------------|--------------------------------|
 B   D   E   D   E   G   B   G    A               B   C   B   G

                             ein  Speil           Vater   Mutter
|--------------------------------|--------------------------------|
|--------------------------------|--------------------------------|
|----7---9---7-------------------|--------------------------------|
|9-------------------5---9---5---|7---------------3-------2-------|
|----------------7---------------|--------------------------------|
|--------------------------------|--------------------------------|
 B   D   E   D   E   G   B   G    A               F       E

Ending (Whispered)

"Kind"
            
Hard to play? Try these video lessons and learn fast. | Correct




comments powered by Disqus
↑ Back to top | Tablatures and chords are parodies/interpretations of the original songs. You may use it for private study, scholarship, research or language learning purposes only