» » »

Speil Mit Mir Tabs (ver.1)

Artists:  A B C D E F G H I J K L M N O P Q R S T U V W X Y Z # 

Speil Mit Mir Tabs (ver.1)

Rammstein
Rating:
0/5 (0 votes)

Tabs too difficult? Try these video lessons and learn fast.
                This song was requested, so I decided to tab it out.  This time I tabbed 
it very differently.  I tabbed it strait through without a song sequence.  
It's all in order.  It will end up to be a very long tab.  Also, I included 
lots of the keyboard right underneath the guitar.  The keyboard is so cool 
for this song.  It's really freaky, so I wanted to tab it out.  The guitar is
on top and the keyboard is underneath it.  If you don't like the format, 
tell me what's good or bad about it.
Tab #5

Standard Tuning

Tempo: 78

General Key:
	   G= Guitar
           K= Keyboard/Synth.

Tab key:
	P.M.= Palm Mute
          ()= Tied Note
	   <= Volume Swell
	   t= Triplet Notes

Intro

G                                                                  9x
||--------------------------------|--------------------------------||
||*-------------------------------|-------------------------------*||
||*-------------------------------|-------------------------------*||
||--------------------------------|--------------------------------||
||--------------------------------|--------------------------------||
||--------------------------------|--------------------------------||
|
|
K                                                                  9x
||--------------------------------|--------------------------------||
||*-------------------------------|-------------------------------*||
||*-------------------------------|-------------------------------*||
||--------------------------------|--------------------------------||
||--------------------------------|--------------------------------||
||0<------------------------------(0)------------------------------||



G
|--------------------------------|--------------------------------|
|--------------------------------|--------------------------------|
|--------------------------------|--------------------------------|
|--------------------------------|--------------------------------|
|--------------------------------|--------------------------------|
|--------------------------------|--------------------------------|
|
|
K
|--------------------------------|--------------------------------|
|--------------------------------|----1110--------11109-----------|
|--------------------------------|9-10--------9-10----------------|
|--------------------------------|--------------------------------|
|--------------------------------|--------------------------------|
|0-------------------------------(0)------------------------------|



Verse

G   P.M.--|      P.M.--------|        P.M.----------------------|
|--------------------------------|--------------------------------|
|--------------------------------|--------------------------------|
|--------------0-----------------|--------------------------------|
|--------------0-----------------|--------------------------------|
|----2-2-2-------2-2-2---2-2-2---|----2-2-2---2-2-----3-3-----3-3-|
|----0-0-0-------0-0-0---0-0-0---|----0-0-0---0-0-----1-1-----1-1-|
|
|
K
|--------------------------------|------------------------------8-|
|--------------------------------|----1110--------11109-------8---|
|--------------------------------|9-10--------9-10----------8-----|
|--------------------------------|------------------------10------|
|--------------------------------|--------------------------------|
|--------------------------------|--------------------------------|



G   P.M.--|      P.M.--------|        P.M.----------------------|
|--------------------------------|--------------------------------|
|--------------------------------|--------------------------------|
|--------------0-----------------|--------------------------------|
|--------------0-----------------|--------------------------------|
|----2-2-2-------2-2-2---2-2-2---|----2-2-2---2-2-----3-3-----3-3-|
|----0-0-0-------0-0-0---0-0-0---|----0-0-0---0-0-----1-1-----1-1-|
|
|
K
|--------------------------------|--------------------------------|
|--------------------------------|----1110--------11109-------9-8-|
|--------------------------------|9-10--------9-10----------8-----|
|--------------------------------|------------------------10------|
|--------------------------------|--------------------------------|
|--------------------------------|--------------------------------|



G   P.M.--|      P.M.--------|        P.M.----------------------|
|--------------------------------|--------------------------------|
|--------------------------------|--------------------------------|
|--------------0-----------------|--------------------------------|
|--------------0-----------------|--------------------------------|
|----2-2-2-------2-2-2---2-2-2---|----2-2-2---2-2-----3-3-----3-3-|
|----0-0-0-------0-0-0---0-0-0---|----0-0-0---0-0-----1-1-----1-1-|
|
|
K
|--------------------------------|------------------------------7-|
|--------------------------------|----1110--------11109-------7---|
|--------------------------------|9-10--------9-10----------7-----|
|--------------------------------|------------------------9-------|
|--------------------------------|--------------------------------|
|--------------------------------|--------------------------------|



G   P.M.--|      P.M.--------|        P.M.----------------------|
|--------------------------------|--------------------------------|
|--------------------------------|--------------------------------|
|--------------0-----------------|--------------------------------|
|--------------0-----------------|--------------------------------|
|----2-2-2-------2-2-2---2-2-2---|----2-2-2---2-2-----3-3-----3-3-|
|----0-0-0-------0-0-0---0-0-0---|----0-0-0---0-0-----1-1-----1-1-|
|
|
K
|--------------------------------|--------------------------------|
|--------------------------------|----1110--------11109-----------|
|--------------------------------|9-10--------9-10----------------|
|--------------------------------|--------------------------------|
|--------------------------------|--------------------------------|
|--------------------------------|--------------------------------|



G   P.M.--|      P.M.--------|        P.M.----------------------|
|--------------------------------|--------------------------------|
|--------------------------------|--------------------------------|
|--------------2-----------------|--------------------------------|
|----2-2-2-----2-2-2-2---2-2-2---|----2-2-2---2-2-3---3-3---------|
|----0-0-0-------0-0-0---0-0-0---|----0-0-0---0-0-1---1-1-5---5-5-|
|--------------------------------|------------------------3---3-3-|
|
|
K
|--------------------------------|--------------------------------|
|--------------------------------|----------------Different-Sound-|
|2<------------------------------(2)--------------3-------0-------|
|--------------------------------|--------------------------------|
|--------------------------------|--------------------------------|
|--------------------------------|--------------------------------|



G   P.M.--|      P.M.--------|        P.M.--------|
|--------------------------------|--------------------------------|
|--------------------------------|--------------------------------|
|--------------2-----------------|--------------------------------|
|----2-2-2-----2-2-2-2---2-2-2---|----2-2-2---2-2-3---------------|
|----0-0-0-------0-0-0---0-0-0---|----0-0-0---0-0-1---------------|
|--------------------------------|--------------------------------|
|
|
K
|--------------------------------|--------------------------------|
|--------------------------------|---------Different Sound--------|
|2<------------------------------(2)--------------3--(X-X-X-X-X-X)|
|--------------------------------|--------------------Techno Thingy
|--------------------------------|--------------------------------|
|--------------------------------|--------------------------------|



Verse

G   P.M.--|      P.M.--------|        P.M.----------------------|
|--------------------------------|--------------------------------|
|--------------------------------|--------------------------------|
|--------------0-----------------|--------------------------------|
|--------------0-----------------|--------------------------------|
|----2-2-2-------2-2-2---2-2-2---|----2-2-2---2-2-----3-3-----3-3-|
|----0-0-0-------0-0-0---0-0-0---|----0-0-0---0-0-----1-1-----1-1-|
|
|
K
|--------------------------------|------------------------------8-|
|--------------------------------|----1110--------11109-------8---|
|--------------------------------|9-10--------9-10----------8-----|
|--------------------------------|------------------------10------|
|--------------------------------|--------------------------------|
|--------------------------------|--------------------------------|



G   P.M.--|      P.M.--------|        P.M.----------------------|
|--------------------------------|--------------------------------|
|--------------------------------|--------------------------------|
|--------------0-----------------|--------------------------------|
|--------------0-----------------|--------------------------------|
|----2-2-2-------2-2-2---2-2-2---|----2-2-2---2-2-----3-3-----3-3-|
|----0-0-0-------0-0-0---0-0-0---|----0-0-0---0-0-----1-1-----1-1-|
|
|
K
|--------------------------------|--------------------------------|
|--------------------------------|----1110--------11109-------9-8-|
|--------------------------------|9-10--------9-10----------8-----|
|--------------------------------|------------------------10------|
|--------------------------------|--------------------------------|
|--------------------------------|--------------------------------|



G   P.M.--|      P.M.--------|        P.M.----------------------|
|--------------------------------|--------------------------------|
|--------------------------------|--------------------------------|
|--------------0-----------------|--------------------------------|
|--------------0-----------------|--------------------------------|
|----2-2-2-------2-2-2---2-2-2---|----2-2-2---2-2-----3-3-----3-3-|
|----0-0-0-------0-0-0---0-0-0---|----0-0-0---0-0-----1-1-----1-1-|
|
|
K
|--------------------------------|------------------------------7-|
|--------------------------------|----1110--------11109-------7---|
|--------------------------------|9-10--------9-10----------7-----|
|--------------------------------|------------------------9-------|
|--------------------------------|--------------------------------|
|--------------------------------|--------------------------------|



G   P.M.--|      P.M.--------|        P.M.----------------------|
|--------------------------------|--------------------------------|
|--------------------------------|--------------------------------|
|--------------0-----------------|--------------------------------|
|--------------0-----------------|--------------------------------|
|----2-2-2-------2-2-2---2-2-2---|----2-2-2---2-2-----3-3-----3-3-|
|----0-0-0-------0-0-0---0-0-0---|----0-0-0---0-0-----1-1-----1-1-|
|
|
K
|--------------------------------|--------------------------------|
|--------------------------------|----1110--------11109-----------|
|--------------------------------|9-10--------9-10----------------|
|--------------------------------|--------------------------------|
|--------------------------------|--------------------------------|
|--------------------------------|--------------------------------|



G   P.M.--|      P.M.--------|        P.M.----------------------|
|--------------------------------|--------------------------------|
|--------------------------------|--------------------------------|
|--------------2-----------------|--------------------------------|
|----2-2-2-----2-2-2-2---2-2-2---|----2-2-2---2-2-3---3-3---------|
|----0-0-0-------0-0-0---0-0-0---|----0-0-0---0-0-1---1-1-5---5-5-|
|--------------------------------|------------------------3---3-3-|
|
|
K
|--------------------------------|--------------------------------|
|--------------------------------|----------------Different-Sound-|
|2<------------------------------(2)--------------3-------0-------|
|--------------------------------|--------------------------------|
|--------------------------------|--------------------------------|
|--------------------------------|--------------------------------|



G   P.M.--|      P.M.--------|        P.M.--------|
|--------------------------------|--------------------------------|
|--------------------------------|--------------------------------|
|--------------2-----------------|--------------------------------|
|----2-2-2-----2-2-2-2---2-2-2---|----2-2-2---2-2-3---------------|
|----0-0-0-------0-0-0---0-0-0---|----0-0-0---0-0-1---------------|
|--------------------------------|--------------------------------|
|
|
K
|--------------------------------|--------------------------------|
|--------------------------------|----------------Different Sound-|
|2<------------------------------(2)--------------3---------------|
|--------------------------------|--------------------------------|
|--------------------------------|--------------------------------|
|--------------------------------|--------------------------------|



Chorus

G    P.M.--------------------|        P.M.----------------------|
|--------------------------------|--------------------------------|
|--------------------------------|--------------------------------|
|--------------------------------|--------------------------------|
|----4-4-4-----------------------|----2-2-2---2-2-----------------|
|----2-2-2-------2-2-2---2-2-2---|----0-0-0---0-0-3---3-3-2---2-2-|
|----------------0-0-0---0-0-0---|----------------1---1-1-0---0-0-|
|
|
K
|--------------------------------|--------------------------------|
|--------------------------------|--------------------------------|
|----7---9---7-------------------|--------------------------------|
|9-------------------5---9---5---|7---------------9---10--9---5---|
|----------------7---------------|--------------------------------|
|--------------------------------|--------------------------------|



G    P.M.--------------------|        P.M.----------------------|
|--------------------------------|--------------------------------|
|--------------------------------|--------------------------------|
|--------------------------------|--------------------------------|
|----4-4-4-----------------------|----2-2-2---2-2-----------------|
|----2-2-2-------2-2-2---2-2-2---|----0-0-0---0-0-3---3-3-2---2-2-|
|----------------0-0-0---0-0-0---|----------------1---1-1-0---0-0-|
|
|
K
|--------------------------------|--------------------------------|
|--------------------------------|--------------------------------|
|----7---9---7-------------------|----------------10------9-------|
|9-------------------5---9---5---|7-------------------------------|
|----------------7---------------|--------------------------------|
|--------------------------------|--------------------------------|



G    P.M.--------------------|        P.M.----------------------|
|--------------------------------|--------------------------------|
|--------------------------------|--------------------------------|
|--------------------------------|--------------------------------|
|----4-4-4-----------------------|----2-2-2---2-2-----------------|
|----2-2-2-------2-2-2---2-2-2---|----0-0-0---0-0-3---3-3-2---2-2-|
|----------------0-0-0---0-0-0---|----------------1---1-1-0---0-0-|
|
|
K
|--------------------------------|--------------------------------|
|--------------------------------|--------------------------------|
|----7---9---7-------------------|--------------------------------|
|9-------------------5---9---5---|7---------------9---10--9---5---|
|----------------7---------------|--------------------------------|
|--------------------------------|--------------------------------|



G    P.M.--------------------|        P.M.------|
|--------------------------------|--------------------------------|
|--------------------------------|--------------------------------|
|--------------------------------|--------------------------------|
|----4-4-4-----------------------|----2-2-2---2-2-----------------|
|----2-2-2-------2-2-2---2-2-2---|----0-0-0---0-0-333-333-2-------|
|----------------0-0-0---0-0-0---|----------------111-111-0-------|
|                                                  t   t
|
K
|--------------------------------|--------------------------------|
|--------------------------------|--------------------------------|
|----7---9---7-------------------|--------------------------------|
|9-------------------5---9---5---|7---------------3-------2-------|
|----------------7---------------|--------------------------------|
|--------------------------------|--------------------------------|



G
|--------------------------------|--------------------------------|
|--------------------------------|--------------------------------|
|--------------------------------|--------------------------------|
|--------------------------------|--------------------------------|
|--------------------------------|--------------------------------|
|--------------------------------|--------------------------------|
|
|	Free Time
K
|--------------------------------|--------------------------------|
|--------------------------------|--------------------------------|
|--------------------------------|--------------------------------|
|--------------------------------|--------------------------------|
|--------------------------------|6------(6)-7--(7)---------------|
|5-------------------------------|-----------------------6--------|



G
|--------------------------------|--------------------------------|
|--------------------------------|--------------------------------|
|--------------------------------|--------------------------------|
|--------------------------------|--------------------------------|
|--------------------------------|--------------------------------|
|--------------------------------|--------------------------------|
|
|	Free Time
K
|--------------------------------|--------------------------------|
|--------------------------------|--------------------------------|
|--------------------------------|--------------------------------|
|--------------------------------|--------------------------------|
|--------------------------------|--------------------------------|
(6)--5---------------------------|3------(3)--2--(2)------1-------|



Solo
w/pitch shifter effect (shift up and down from 12 to 11)
G
|--------------------------------|--------------------------------|
|--0-120-120-120-120-120-120-120-|120-120-120-120-120-120-120-120-|
|-----p---p---p---p---p---p---p--|-p---p---p---p---p---p---p---p--|
|--------------------------------|--------------------------------|
|--------------------------------|--------------------------------|
|--------------------------------|--------------------------------|
|
|
K
|--------------------------------|--------------------------------|
|--------------------------------|--------------------------------|
|--------------------------------|--------------------------------|
|--------------------------------|--------------------------------|
|--------------------------------|--------------------------------|
|0-------------------------------|6------(6)--7--(7)------1-------|



G
|--------------------------------|--------------------------------|
|120-120-120-120-120-120-120-120-|120-120-120-120-120-120-120-120-|
|-p---p---p---p---p---p---p---p--|-p---p---p---p---p---p---p---p--|
|--------------------------------|--------------------------------|
|--------------------------------|--------------------------------|
|--------------------------------|--------------------------------|
|
|
K
|--------------------------------|--------------------------------|
|--------------------------------|--------------------------------|
|--------------------------------|--------------------------------|
|--------------------------------|--------------------------------|
|--------------------------------|--------------------------------|
(1)--0--(0)----------------------(0)-------------(0)--1--(1)--2---|



G
|--------------------------------|--------------------------------|
|120-120-120-120-120-120-120-120-|120-120-120-120-120-120-120-120-|
|-p---p---p---p---p---p---p---p--|-p---p---p---p---p---p---p---p--|
|--------------------------------|--------------------------------|
|--------------------------------|--------------------------------|
|--------------------------------|--------------------------------|
|
|
K
|--------------------------------|--------------------------------|
|--------------------------------|--------------------------------|
|--------------------------------|--------------------------------|
|--------------------------------|--------------------------------|
|--------------------------------|4------(4)--5--(5)--------------|
(2)--3--(3)----------------------|------------------------4-------|



G
|--------------------------------|--------------------------------|
|120-120-120-120-120-120-120-120-|120-120-120-120-120-120-15151515|
|-p---p---p---p---p---p---p---p--|-p---p---p---p---p---p-^^^^^^^^^^
|--------------------------------|--------------------- Bend from 12 to 15
|--------------------------------|--------------------  with Artificial
|--------------------------------|--------------------  Harmonics
|
|
K
|--------------------------------|--------------------------------|
|--------------------------------|--------------------------------|
|--------------------------------|--------------------------------|
|--------------------------------|--------------------------------|
|--------------------------------|--------------------------------|
(4)--3--(3)----------------------(3)------------------------------|



Verse

G   P.M.--|      P.M.--------|        P.M.----------------------|
|--------------------------------|--------------------------------|
|--------------------------------|--------------------------------|
|--------------0-----------------|--------------------------------|
|--------------0-----------------|--------------------------------|
|----2-2-2-------2-2-2---2-2-2---|----2-2-2---2-2-----3-3-----3-3-|
|----0-0-0-------0-0-0---0-0-0---|----0-0-0---0-0-----1-1-----1-1-|
|
|
K
|--------------------------------|--------------------------------|
|--------------------------------|--------------------------------|
|--------------------------------|--------------------------------|
|--------------------------------|--------------------------------|
|--------------------------------|--------------------------------|
|0-------------------------------|6------(6)--7--(7)------1-------|




G   P.M.--|      P.M.--------|        P.M.----------------------|
|--------------------------------|--------------------------------|
|--------------------------------|--------------------------------|
|--------------0-----------------|--------------------------------|
|--------------0-----------------|--------------------------------|
|----2-2-2-------2-2-2---2-2-2---|----2-2-2---2-2-----3-3-----3-3-|
|----0-0-0-------0-0-0---0-0-0---|----0-0-0---0-0-----1-1-----1-1-|
|
|
K
|--------------------------------|--------------------------------|
|--------------------------------|--------------------------------|
|--------------------------------|--------------------------------|
|--------------------------------|--------------------------------|
|--------------------------------|--------------------------------|
(1)--0--(0)----------------------(0)--------------1-------2-------|



G   P.M.--|      P.M.--------|        P.M.----------------------|
|--------------------------------|--------------------------------|
|--------------------------------|--------------------------------|
|--------------0-----------------|--------------------------------|
|--------------0-----------------|--------------------------------|
|----2-2-2-------2-2-2---2-2-2---|----2-2-2---2-2-----3-3-----3-3-|
|----0-0-0-------0-0-0---0-0-0---|----0-0-0---0-0-----1-1-----1-1-|
|
|
K
|--------------------------------|--------------------------------|
|--------------------------------|--------------------------------|
|--------------------------------|--------------------------------|
|--------------------------------|--------------------------------|
|--------------------------------|4------(4)--5--(5)--------------|
|3-------------------------------|------------------------4-------|



G   P.M.--|      P.M.--------|        P.M.----------------------|
|--------------------------------|--------------------------------|
|--------------------------------|--------------------------------|
|--------------0-----------------|--------------------------------|
|--------------0-----------------|--------------------------------|
|----2-2-2-------2-2-2---2-2-2---|----2-2-2---2-2-----3-3-----3-3-|
|----0-0-0-------0-0-0---0-0-0---|----0-0-0---0-0-----1-1-----1-1-|
|
|
K
|--------------------------------|--------------------------------|
|--------------------------------|--------------------------------|
|--------------------------------|--------------------------------|
|--------------------------------|--------------------------------|
|--------------------------------|--------------------------------|
(4)--3--(3)----------------------(3)--------------4---------------|



G
|--------------------------------|--------------------------------|
|--------------------------------|--------------------------------|
|--------------------------------|--------------------------------|
|--------------------------------|----------------8-------5-------|
|--------------------------------|----------------8-------5-------|
|--------------------------------|----------------6-------3-------|
|
|
K
|--------------------------------|--------------------------------|
|--------------------------------|--------------------------------|
|--------------------------------|--------------------------------|
|--------------------------------|--------------------------------|
|--------------------------------|--------------------------------|
|5-------------------------------(5)--------------6-------3-------|



G   P.M.--|      P.M.--------|        P.M.----------------------|
|--------------------------------|--------------------------------|
|--------------------------------|--------------------------------|
|--------------2-----------------|--------------------------------|
|----2-2-2-----2-2-2-2---2-2-2---|----2-2-2---2-2-3---3-3---------|
|----0-0-0-------0-0-0---0-0-0---|----0-0-0---0-0-1---1-1-5---5-5-|
|--------------------------------|------------------------3---3-3-|
|
|
K
|--------------------------------|--------------------------------|
|--------------------------------|--------------------------------|
|--------------------------------|--------------------------------|
|--------------------------------|-----------------Techno Thingy--|
|--------------------5---3-------|-------------------(X-X-X-X-X-X)|
|5---------------------------5---(5)--------------6---------------|



Chorus

G    P.M.--------------------|        P.M.----------------------|
|--------------------------------|--------------------------------|
|--------------------------------|--------------------------------|
|--------------------------------|--------------------------------|
|----4-4-4-----------------------|----2-2-2---2-2-----------------|
|----2-2-2-------2-2-2---2-2-2---|----0-0-0---0-0-3---3-3-2---2-2-|
|----------------0-0-0---0-0-0---|----------------1---1-1-0---0-0-|
|
|
K
|--------------------------------|--------------------------------|
|--------------------------------|--------------------------------|
|----7---9---7-------------------|--------------------------------|
|9-------------------5---9---5---|7---------------9---10--9---5---|
|----------------7---------------|--------------------------------|
|--------------------------------|--------------------------------|



G    P.M.--------------------|        P.M.----------------------|
|--------------------------------|--------------------------------|
|--------------------------------|--------------------------------|
|--------------------------------|--------------------------------|
|----4-4-4-----------------------|----2-2-2---2-2-----------------|
|----2-2-2-------2-2-2---2-2-2---|----0-0-0---0-0-3---3-3-2---2-2-|
|----------------0-0-0---0-0-0---|----------------1---1-1-0---0-0-|
|
|
K
|--------------------------------|--------------------------------|
|--------------------------------|----------------13------12------|
|----7---9---7-------------------|----------------10------9-------|
|9-------------------5---9---5---|7-------------------------------|
|----------------7---------------|--------------------------------|
|--------------------------------|--------------------------------|



G    P.M.--------------------|        P.M.----------------------|
|--------------------------------|--------------------------------|
|--------------------------------|--------------------------------|
|--------------------------------|--------------------------------|
|----4-4-4-----------------------|----2-2-2---2-2-----------------|
|----2-2-2-------2-2-2---2-2-2---|----0-0-0---0-0-3---3-3-2---2-2-|
|----------------0-0-0---0-0-0---|----------------1---1-1-0---0-0-|
|
|
K
|--------------------------------|--------------------------------|
|--------------------------------|--------------------------------|
|----7---9---7-------------------|--------------------------------|
|9-------------------5---9---5---|7---------------9---10--9---5---|
|----------------7---------------|--------------------------------|
|--------------------------------|--------------------------------|



G    P.M.--------------------|        P.M.------|        P.M.
|--------------------------------|--------------------------------|
|--------------------------------|--------------------------------|
|--------------------------------|--------------------------------|
|----4-4-4-----------------------|----2-2-2---2-2-----------------|
|----2-2-2-------2-2-2---2-2-2---|----0-0-0---0-0-3-3-3-3-2-------|
|----------------0-0-0---0-0-0---|----------------1-1-1-1-0-------|
|
|
K
|--------------------------------|--------------------------------|
|--------------------------------|--------------------------------|
|----7---9---7-------------------|--------------------------------|
|9-------------------5---9---5---|7---------------3-------2-------|
|----------------7---------------|--------------------------------|
|--------------------------------|--------------------------------|



G    P.M.--------------------|        P.M.----------------------|
|--------------------------------|--------------------------------|
|--------------------------------|--------------------------------|
|--------------------------------|--------------------------------|
|----4-4-4-----------------------|----2-2-2---2-2-----------------|
|----2-2-2-------2-2-2---2-2-2---|----0-0-0---0-0-3---3-3-2---2-2-|
|----------------0-0-0---0-0-0---|----------------1---1-1-0---0-0-|
|
|
K
|--------------------------------|--------------------------------|
|--------------------------------|--------------------------------|
|----7---9---7-------------------|--------------------------------|
|9-------------------5---9---5---|7---------------9---10--9---5---|
|----------------7---------------|--------------------------------|
|--------------------------------|--------------------------------|



G    P.M.--------------------|        P.M.----------------------|
|--------------------------------|--------------------------------|
|--------------------------------|--------------------------------|
|--------------------------------|--------------------------------|
|----4-4-4-----------------------|----2-2-2---2-2-----------------|
|----2-2-2-------2-2-2---2-2-2---|----0-0-0---0-0-3---3-3-2---2-2-|
|----------------0-0-0---0-0-0---|----------------1---1-1-0---0-0-|
|
|
K
|--------------------------------|--------------------------------|
|--------------------------------|--------------------------------|
|----7---9---7-------------------|----------------10------9-------|
|9-------------------5---9---5---|7-------------------------------|
|----------------7---------------|--------------------------------|
|--------------------------------|--------------------------------|



G    P.M.--------------------|        P.M.----------------------|
|--------------------------------|--------------------------------|
|--------------------------------|--------------------------------|
|--------------------------------|--------------------------------|
|----4-4-4-----------------------|----2-2-2---2-2-----------------|
|----2-2-2-------2-2-2---2-2-2---|----0-0-0---0-0-3---3-3-2---2-2-|
|----------------0-0-0---0-0-0---|----------------1---1-1-0---0-0-|
|
|
K
|--------------------------------|--------------------------------|
|--------------------------------|--------------------------------|
|----7---9---7-------------------|--------------------------------|
|9-------------------5---9---5---|7---------------9---10--9---5---|
|----------------7---------------|--------------------------------|
|--------------------------------|--------------------------------|



                             ein  Speil           Vater   Mutter
G    P.M.--------------------|        P.M.------|
|--------------------------------|--------------------------------|
|--------------------------------|--------------------------------|
|--------------------------------|--------------------------------|
|----4-4-4-----------------------|----2-2-2---2-2-----------------|
|----2-2-2-------2-2-2---2-2-2---|----0-0-0---0-0-333-333-2-------|
|----------------0-0-0---0-0-0---|----------------111-111-0-------|
|                                                  t   t  
|
K
|--------------------------------|--------------------------------|
|--------------------------------|--------------------------------|
|----7---9---7-------------------|--------------------------------|
|9-------------------5---9---5---|7---------------3-------2-------|
|----------------7---------------|--------------------------------|
|--------------------------------|--------------------------------|



Ending (Whispered)

"Kind"
            
Tabs too difficult? Try these video lessons and learn fast.




comments powered by Disqus
↑ Back to top | Tablatures and chords are parodies/interpretations of the original songs. You may use it for private study, scholarship, research or language learning purposes only