» » »

Rammstein, Nebel Bass tabs (ver.1)

Artists:  A B C D E F G H I J K L M N O P Q R S T U V W X Y Z # 

Nebel Bass tabs (ver.1)

Rammstein Tabs
 Rating:
4/5 (4 votes)
Nebel  lessons Tabs too difficult? Try these video lessons and learn fast
                (2)
14/10/02
Nebel was taken from the album ‘Mutter’ by Rammstein

Riff 1
G|-------------------------------------------------------------------|G
D|-------------------------------------------------------------------|D
A|--3-5-5-5-5-5-5-5-6-5-5-5-5-5-5-5-3-5-5-5-5-5-5-5-3-5-5-5-5-5-5-5--|A
E|-------------------------------------------------------------------|E
‘Riff’ 2
G|-----------------------------------|G
D|-----------------------------------|D
A|-----------------------------------|A
E|-–5-5-5-5-5-5-5-5-2-2-2-2-2-2-2-2--|E
The long part
G|----------------------------------------------------------------------------------
D|---------------------------------3-5-5-5-5-5-5-5-3-5-5-5-5-5-5-5------------------
A|--3-5-5-5-5-5-5-5-3-5-5-5-5-5-5-5--------------------------------5-7-7-7-7-7-7-7--
E|----------------------------------------------------------------------------------

G ----------------------------------------------------------|G
D ----------------------------------------------------------|D
A -----------------------------------------3-5-5-5-5-5-5-5--|A
E --5-7-7-7-7-7-7-7-3-5-5-5-5-5-5-5-------------------------|E

Riff 1 x9
‘riff’ 2 x1
longest thingy x1
Riff 1 x4
‘riff’ 2 x1
longest thingy x8
            
Submit corrections

comments powered by Disqus
↑ Back to top | Rammstein Bass for Nebel. Lyrics for acoustic guitar and electric guitar. Tablatures and chords are parodies/interpretations of the original songs. You may use it for private study, scholarship, research or language learning purposes only