» » »

Nebel Tabs (ver.1)

Artists:  A B C D E F G H I J K L M N O P Q R S T U V W X Y Z # 

Nebel Tabs (ver.1)

Rammstein
Rating:
0/5 (0 votes)

Hard to play? Try these video lessons and learn fast.
                PROPS GO TO: Harvester Of Sorrow

G-------------------------------------------------------------------------
D-------------------------------------------------------------------------
A---------------3---------------------------------------------------------
E--3--55555555-----55555555--reapeat till it gets close to the courus-----

before the chourus, it goes like this:
G-------------------------------------------------------------------------
D-------------------------------------------------------------------------
A---------------3---------------------------------------------------------
E--3--55555555-----55555555---22222222---00000000-------------------------

Chourus
G-------------------------------------------------------------------------
D-------------------------------------------------------------------------
A----------------------------3--55555555--3--55555555--5--77777777--------
E--3--55555555--3--55555555-----------------------------------------------

G-------------------------------------------------------------------------
D-------------------------------------------------------------------------
A---------------33333333--------------------------------------------------
E--5--77777777------------3--55555555-------------------------------------
            
Hard to play? Try these video lessons and learn fast. | Correct




comments powered by Disqus
↑ Back to top | Tablatures and chords are parodies/interpretations of the original songs. You may use it for private study, scholarship, research or language learning purposes only