» » »

Rammstein, Mein Herz Brennt Tabs (ver.3)

Artists:  A B C D E F G H I J K L M N O P Q R S T U V W X Y Z # 

Mein Herz Brennt Tabs (ver.3)

Rammstein Tabs
 Rating:
4/5 (4 votes)
Mein Herz Brennt lessons Tabs too difficult? Try these video lessons and learn fast
1
                INTRO (KEYBOARD ARR. FOR GUITAR))

--------------------------------------------------
--------------------------------------------------
-5------------------------------------------------
-5-------------3--------------6---------------5---
-3-------------3--------------6---------------5---
---------------1--------------4---------------3---
nun liebe kinder,gebt fein acht, etc. etc.


CHORUS 1

THE SAME AS INTRO, ONLY PLAY THE CHORDS 1 TONE LOWER (2 FRETS)


CHORUS 2 play 13x
-------------------------------------------------
-------------------------------------------------
-5-----------------------------------------------
-5-----------------------------------------------
-3-----------------------------------------------
------------------------------------------------

VERSE

-------------------------------------------------
-------------------------------------------------
-3/5-5-5-5-3/5-5-5-5-3/5-5-----------------------
-3/5-5-5-5-3/5-5-5-5-3/5-5-----------------------
-1/3-3-3-3-1/3-3-3-3-1/3-3-----------------------
-------------------------------------------------

SOLO

GUITAR ONE

GUITAR ONE PLAYES INTRO ONE TONE HIGHER HE HITS EVERY CHORD 13 TIMES

GUITAR TWO

-0--------------1----------------/3-------------5
-------------------------------------------------
-------------------------------------------------
-------------------------------------------------
-------------------------------------------------
-------------------------------------------------
repeat 3 times then:

-/8------------10---------------8---------------6
-------------------------------------------------
-------------------------------------------------
-------------------------------------------------
-------------------------------------------------
-------------------------------------------------
            
Submit corrections

comments powered by Disqus
↑ Back to top | Rammstein Tabs for Mein Herz Brennt. Lyrics for acoustic guitar and electric guitar. 1 Tablatures and chords are parodies/interpretations of the original songs. You may use it for private study, scholarship, research or language learning purposes only