>
 >
Mein Herz Brennt

Mein Herz Brennt Guitar Tabs

Rammstein - Mein Herz Brennt chords, tabs, tablatures, lyrics

Guitar lessons | Add/correct | Request | Top 50 tabs Artists:  A B C D E F G H I J K L M N O P Q R S T U V W X Y Z 0-9

Mein Herz Brennt Guitar Tabs – Rammstein

CD, Sheet music, Poster

Do you like Mein Herz Brennt? Share with your friends now
Bass TabsBass Tabs v2Drum TabsTabsTabs v2Tabs v3Tabs v4
Symbols used in this tab:

Notes:
w - whole note
h - half note
q - quarter note
e - eighth note
s - sixteenth note

Rests:
W - whole rest
H - Half rest
Q - quarter rest
E - eighth rest
S - sixteenth rest

Articulations:
pm - palm muting
/ - slide up
\ - slide down
^ - hammer on/pull off

  intro/chorus:
 /        repeat 3 times         \
E|-------------------------------|-----------------------------|
B|-------------------------------|-----------------------------|
G|.-----------------------------.|-----------------------------|
D|.-5-5-5-5---5-5-5-5---5-5-5-5-.|--5-5-5-5---5-5-5-5----------|
A|--3-3-3-3---3-3-3-3---3-3-3-3--|--3-3-3-3---3-3-3-3-----3-4--|
E|-------------------------------|--------------------0-0-1-2--|
    s s s s E s s s s E s s s s     s s s s E s s s s s s e e
                                                      pm-]

  verses:
  (clean)
E|-----------------------|
B|-----------------------|
G|.---------------------.|
D|.---------------------.|
A|--1---3---1---3---1-3--|
E|-----------------------|
    e S e S e S e S e e

  before chorus:
                    1.    2.
E|-----|-----|-----|-----|------|
B|-----|-----|-----|-----|------|
G|.----|-----|-----|----.|------|
D|.-5--|-----|-----|----.|------|
A|--3--|--3--|--6--|--5--|--5---|
E|-----|--1--|--4--|--3--|--3---|
    w     w     w     w     h H

  into middle:
E|------------------------------|-----|-------|
B|------------------------------|-----|-------|
G|------------------------------|-----|---*---|
D|--5-5-5-5---5-5-5-5-----10-8--|--7--|--(7)--|
A|--3-3-3-3---3-3-3-3-----8--6--|--5--|--(5)--|
E|--------------------0-0-------|-----|-------|
    s s s s E s s s s s s e  e     w  +   w
                      pm-]              *fade

  solo:
  with wah
 /         repeat 3 times          \
E|---------------------------------|-------------------------------------|
B|---------------------------------|-------------------------------------|
G|.-9---9-9^10-10--12-12-12/14-14-.|--17--17-17/19--19-(19)\17-17\15-15\-|
D|.-------------------------------.|-------------------------------------|
A|---------------------------------|-------------------------------------|
E|---------------------------------|-------------------------------------|
    e+s s s s  e+s s  e  s  s  e      e+s s  s  s   q   s   s  s  s  e

E|--------------------------------------|--------------------------------------|
B|--------------------------------------|--------------------------------------|
G|--9-----9-9^10-10----12-12-12/14-14---|--9-----9-9^10-10----12-12-12/14-14---|
D|--------------------------------------|--------------------------------------|
A|--------------------------------------|--------------------------------------|
E|--------------------------------------|--------------------------------------|
 |  e+s   s s s  e+s   s  e  s  s  e    |  e+s   s s s  e+s   s  e  s  s  e    |
 |                                      |                                      |
E|--------------------------------------|--------------------------------------|
B|--------------------------------------|--------------------------------------|
G|--------------------------------------|--------------------------------------|
D|--7-7-7-7------7-7-7-7-----7--7--7-7--|--------------------------------------|
A|--5-5-5-5------5-5-5-5-----5--5--5-5--|--5-5-5-5------5-5-5-5-----5--5--5-5--|
E|--------------------------------------|--3-3-3-3------3-3-3-3-----3--3--3-3--|
    s s s s E    s s s s  E  s  s  s s     s s s s E    s s s s  E  s  s  s s

E|-------------------------------------|--------------------------------------------|
B|-------------------------------------|--------------------------------------------|
G|-9-----9-9^10-10----12-12-12/14-14---|--17----17-17/19-19------(19)\17-17\15-15\--|
D|-------------------------------------|--------------------------------------------|
A|-------------------------------------|--------------------------------------------|
E|-------------------------------------|--------------------------------------------|
 | e+s   s s s  e+s   s  e  s  s  e    |  e+s   s  s  s  q        s   s  s  s  e    |
 |                                     |                                            |
E|-------------------------------------|--------------------------------------------|
B|-------------------------------------|--------------------------------------------|
G|-------------------------------------|--------------------------------------------|
D|-------------------------------------|--5-5-5-5--------5--5-5-5--------5--5--5-5--|
A|-8-8-8-8------8-8-8-8-----8--8--8-8--|--3-3-3-3--------3--3-3-3--------3--3--3-3--|
E|-6-6-6-6------6-6-6-6-----6--6--6-6--|--3-3-3-3--------3--3-3-3--------3--3--3-3--|
   s s s s E    s s s s  E  s  s  s s     s s s s  E     s  s s s E      s  s  s s

E|------------------------------------|------------------------------------|
B|------------------------------------|------------------------------------|
G|--9---------10------12-(12)/14-14---|--9---------10------12-(12)/14-14---|
D|------------------------------------|------------------------------------|
A|------------------------------------|------------------------------------|
E|------------------------------------|------------------------------------|
 |  q+e       q       e  +s   s  e    |  q+e       q       e  +s   s  e    |
 |                                    |                                    |
E|------------------------------------|------------------------------------|
B|------------------------------------|------------------------------------|
G|------------------------------------|------------------------------------|
D|--7-7-7-7---7-7-7-7-----7---7--7-7--|------------------------------------|
A|--5-5-5-5---5-5-5-5-----5---5--5-5--|--5-5-5-5---5-5-5-5-----5---5--5-5--|
E|------------------------------------|--3-3-3-3---3-3-3-3-----3---3--3-3--|
    s s s s E s s s s E   s   s  s s     s s s s E s s s s E   s    s  s s

E|------------------------------------|--------------------------------------|
B|------------------------------------|--------------------------------------|
G|--9---------10------12-(12)/14-14---|--17----------/19--*(19)\17-17\15-15\-|
D|------------------------------------|--------------------------------------|
A|------------------------------------|--------------------------------------|
E|------------------------------------|--------------------------------------|
 |  q+e       q       e  +s   s  e    |  q+e+s        e+s + s   s  s  s  e   |
 |                                    |                                      |
E|------------------------------------|--------------------------------------|
B|------------------------------------|--------------------------------------|
G|------------------------------------|--------------------------------------|
D|------------------------------------|--5-5-5-5---5-5-5-5-------------------|
A|--8-8-8-8---8-8-8-8-----8---8--8-8--|--3-3-3-3---3-3-3-3-------------------|
E|--6-6-6-6---6-6-6-6-----6---6--6-6--|--3-3-3-3---3-3-3-3-------------------|
    s s s s E s s s s E   s   s  s s     s s s s E s s s s  Q+E
                                                      *fade out (studio fade)





Comments


Popular Rammstein tabs & chords
Benzin Bass Tabs
Der Meister 2 Bass Tabs
Du Hast 4 Bass Tabs
Liese Bass Tabs
Donaukinder 1 Tabs
Halleluja Tabs
Mutter 5 Tabs
Rosenrot 2 Tabs
Seemann 1 Tabs
Sonne 5 Tabs


Song lyrics



↑ Back to top | Tablatures and chords are parodies/interpretations of the original songs. You may use it for private study, scholarship, research or language learning purposes only
© 2014 AZChords.com Contact us | Privacy policy | DMCA | Add/correct tabs | Request tabs | Top 50 tabs