» » »

Rammstein, Ich Will Tabs (ver.3)

Artists:  A B C D E F G H I J K L M N O P Q R S T U V W X Y Z # 

Ich Will Tabs (ver.3)

Rammstein Tabs
 Rating:
4/5 (4 votes)
Ich Will lessons Tabs too difficult? Try these video lessons and learn fast
1
                Drop D tuning 

fairly simple song 

enjoy! 

-0-0-0-0-0---0-0-0-0-0-0-0-0------------0-0-0-0-0---5-3-1h0------------------- 
-5-5-5-5-5---5-5-5-5-5-5-5-5---x3-------5-5-5-5-5---5-3-1h0---x1-------------- 
-0-0-0-0-0---0-0-0-0-0-0-0-0------------0-0-0-0-0---5-3-1h0------------------- 
 intro  with distortion                                                        

-0-0-0-0-0---0-0-0-0-0-0-0-0-----------0-0-0-0-0---5-3-1h0-------------------- 
-5-5-5-5-5---5-5-5-5-5-5-5-5---x3------5-5-5-5-5---5-3-1h0---x1--------------- 
-0-0-0-0-0---0-0-0-0-0-0-0-0-----------0-0-0-0-0---5-3-1h0-------------------- 
                                                                               

-0-0-0-0-0-------------------------------------------------------------------- 
-5-5-5-5-5--x8---------------------------------------------------------------- 
-0-0-0-0-0-------------------------------------------------------------------- 
                                                                               

-0-0-0-0---8---8-8---7-5-7-8----0-0-0-0---8--8---10-10---7-7-7---------------- 
-0-0-0-0---8---8-8---7-5-7-8----0-0-0-0---8--8---10-10---7-7-7--x4------------ 
-0-0-0-0---8---8-8---7-5-7-8----0-0-0-0---8--8---10-10---7-7-7---------------- 
 chorus                                                                        

-0-0-0-0-0---0-0-0-0-0-0-0-0----------0-0-0-0-0---5-3-1h0--------------------- 
-5-5-5-5-5---5-5-5-5-5-5-5-5---x3-----5-5-5-5-5---5-3-1h0--------------------- 
-0-0-0-0-0---0-0-0-0-0-0-0-0----------0-0-0-0-0---5-3-1h0--------------------- 
                                                                               

-----0------0------0------0------8------8------8----8-7-5----------5-----5---- 
---0------0------0------0------8------8------8------8-7-5--------5-----5------ 
-0------0------0------0------8------8------8--------8-7-5------5-----5-------- 
 clean  part x2                                                                

-----5------5------7------7------7------7------------------------------------- 
---5------5------7------7------7------7--------------------------------------- 
-5------5------7------7------7------7----------------------------------------- 
                                                                               

-0-0-0-0-0---0-0-0-0-0-0-0-0-------------------------------------------------- 
-5-5-5-5-5---5-5-5-5-5-5-5-5--x2---------------------------------------------- 
-0-0-0-0-0---0-0-0-0-0-0-0-0--------------------------------------------------
            
Submit corrections

comments powered by Disqus
↑ Back to top | Rammstein Tabs for Ich Will. Lyrics for acoustic guitar and electric guitar. 1 Tablatures and chords are parodies/interpretations of the original songs. You may use it for private study, scholarship, research or language learning purposes only