» » »

Rammstein, Ich Will Tabs (ver.2)

Artists:  A B C D E F G H I J K L M N O P Q R S T U V W X Y Z # 

Ich Will Tabs (ver.2)

Rammstein Tabs
 Rating:
4/5 (4 votes)
Ich Will lessons Tabs too difficult? Try these video lessons and learn fast
1
                Guitarists: Paul Landers & Richard Krupse
Tuning: Drop D

Is it just me or do the keyboards sound like they would be



Intro w/ distortion

                    play 3 times
E---------------------------------|---------------------------------|
B---------------------------------|---------------------------------|
G---------------------------------|---------------------------------|
D---------------------------------|---------------5-5-5-3-3-3-0-0---|
A---------------------------------|---------------5-5-5-3-3-3-0-0---|
D---0-0-0-0-0---0-0-0-0-0-0-0-0---|---0-0-0-0-0---5-5-5-3-3-3-0-0---|


Bridge (after 1st verse)

                    play 3 times
E---------------------------------|---------------------------------|
B---------------------------------|---------------------------------|
G---------------------------------|---------------------------------|
D---------------------------------|---------------5-5-5-3-3-3-0-0---|
A---------------------------------|---------------5-5-5-3-3-3-0-0---|
D---0-0-0-0-0---0-0-0-0-0-0-0-0---|---0-0-0-0-0---5-5-5-3-3-3-0-0---|


Verse 2

                  play 4 times
E-----------------------------|
B-----------------------------|
G-----------------------------|
D-----------------------------|
A---0-0-0-0-0-----0-0-0-0-0---|
D---0-0-0-0-0-----0-0-0-0-0---|


Chorus (play twice)

E-------------------------------------------------------------------|
B-------------------------------------------------------------------|
G-------------------------------------------------------------------|
D---------------8-8-8-5-5-5-7-7----------------8-8-8-10-10-10-7-7---|
A---0-0-0-0-0---8-8-8-5-5-5-7-7----0-0-0-0-0---8-8-8-10-10-10-7-7---|
D---0-0-0-0-0---8-8-8-5-5-5-7-7----0-0-0-0-0---8-8-8-10-10-10-7-7---|

E-----------------------------------------------------------------------|
B-----------------------------------------------------------------------|
G-----------------------------------------------------------------------|
D---------------8-8-8-5-5-5-7-7--------------------8-8-8-10-10-10-7-7---|
A---0-0-0-0-0---8-8-8-5-5-5-7-7--0-0-0-0-0-0-0-0---8-8-8-10-10-10-7-7---|
D---0-0-0-0-0---8-8-8-5-5-5-7-7--0-0-0-0-0-0-0-0---8-8-8-10-10-10-7-7---|


2nd Bridge

                    play 3 times
E---------------------------------|---------------------------------|
B---------------------------------|---------------------------------|
G---------------------------------|---------------------------------|
D---------------------------------|---------------5-5-5-3-3-3-0-0---|
A---------------------------------|---------------5-5-5-3-3-3-0-0---|
D---0-0-0-0-0---0-0-0-0-0-0-0-0---|---0-0-0-0-0---5-5-5-3-3-3-0-0---|


Interlude w/ clean tone (play twice)

E---------------------------------------------------------------------|
B---------------------------------------------------------------------|
G---------------------------------------------------------------------|
D-------0-0-----0-0-----0-0-----0-0------8--------8--------8----------|
A-----0-------0-------0-------0--------8---8----8---8----8---8--8-7---|
D---0-------0-------0-------0--------8--------8--------8--------8-7---|

E----------------------------------------------------------------------------|
B----------------------------------------------------------------------------|
G----------------------------------------------------------------------------|
D-------5--------5--------5--------5--------7--------7--------7--------7-----|
A-----5---5----5---5----5---5----5---5----7---7----7---7----7---7----7---7---|
D---5--------5--------5--------5--------7--------7--------7--------7---------|


Repeat Chorus


Outro

E---------------------------------|---------------------------------|
B---------------------------------|---------------------------------|
G---------------------------------|---------------------------------|
D---------------------------------|---------------5-5-5-3-3-3-0-0---|
A---------------------------------|---------------5-5-5-3-3-3-0-0---|
D---0-0-0-0-0---0-0-0-0-0-0-0-0---|---0-0-0-0-0---5-5-5-3-3-3-0-0---|
            
Submit corrections

comments powered by Disqus
↑ Back to top | Rammstein Tabs for Ich Will. Lyrics for acoustic guitar and electric guitar. 1 Tablatures and chords are parodies/interpretations of the original songs. You may use it for private study, scholarship, research or language learning purposes only