» » »

Rammstein, Herzeleid Tabs (ver.1)

Artists:  A B C D E F G H I J K L M N O P Q R S T U V W X Y Z # 

Herzeleid Tabs (ver.1)

Rammstein Tabs
Rating:
0/5 (0 votes)
Herzeleid lessons Tabs too difficult? Try these video lessons and learn fast
                Symbols used in this tab:

Notes:
w - whole note
h - half note
q - quarter note
e - eighth note
s - sixteenth note

Rests:
W - whole rest
H - Half rest
Q - quarter rest
E - eighth rest
S - sixteenth rest

Articulations:
^ - hammer on/pull off
pm - palm muting
/ - slide up
x - fret hand muting

  main bit:
E|--------------------|
B|--------------------|
G|.------------------.|
D|.-----------4-4----.|
A|----4-4-4-4-4-4-4---|
E|----2-3-2-2-3-3-2---|
    E e s e s e e e E
      pm-----]    pm

  chorus:
E|-------------------------|
B|-------------------------|
G|-------------------------|
D|------------4-4----------|
A|--2-4---4---4-4-4--------|
E|--0-2-0-2-2-3-3-2-2-2-2--|
    e e s e s e e s s s s
        pm  pm      pm---]

  middle:
E|--------------------|--------------------|
B|--------------------|--------------------|
G|.-------------------|--------------------|
D|.-----------8-8-----|------------8-8-----|
A|----8-8-8-8-8-8-8---|----8-8-8-8-8-8-8---|
E|----6-7-6-6-7-7-6---|----6-7-6-6-7-7-6---|
    E e s e s e e e E    E e s e s e e e E
      pm-----]    pm       pm-----]    pm

E|--------------------|--------------------|
B|--------------------|--------------------|
G|--------------------|-------------------.|
D|------------7-7-----|------------7-7----.|
A|----7-7-7-7-7-7-7---|----7-7-7-7-7-7-7---|
E|----5-6-5-5-6-6-5---|----5-6-5-5-6-6-5---|
    E e s e s e e e E    E e s e s e e e E
      pm-----]    pm       pm-----]    pm

  under keyboard solo:
E|-----------------------------------|-----------------------------------|
B|-----------------------------------|-----------------------------------|
G|.----------------------------------|-----------------------------------|
D|.----------------------------------|-----------------------------------|
A|-----------------------------------|-----------------------------------|
E|--4^6-6-6-7^6-4^6-4^6-6-6-6-6-6-6--|--4^6-6-6-7^6-4^6-4^6-6-6-6-6-6-6--|
    s s s s s s s s s s s s s s s s     s s s s s s s s s s s s s s s s
        pm-]            pm---------]        pm-]            pm---------]

E|-----------------------------------|-----------------------------------|
B|-----------------------------------|-----------------------------------|
G|-----------------------------------|----------------------------------.|
D|-----------------------------------|----------------------------------.|
A|-----------------------------------|-----------------------------------|
E|--3^5-5-5-6^5-3^5-3^5-5-5-5-5-5-5--|--3^5-5-5-6^5-3^5-3^5-5-5-5-5-5-5--|
    s s s s s s s s s s s s s s s s     s s s s s s s s s s s s s s s s
        pm-]            pm---------]        pm-]            pm---------]

E|-----------------------------------|--------|
B|-----------------------------------|--------|
G|-----------------------------------|--------|
D|-----------------------------------|--9-----|
A|-----------------------------------|--7-----|
E|--4^6-6-6-7^6-4^6-4^6-6-6-6-6-6-6--|--------|
    s s s s s s s s s s s s s s s s     h+q Q
        pm-]            pm---------]

  guitar solo backing:
E|------------|-------|----------|---------------|------------|-------|
B|------------|-------|----------|---------------|------------|-------|
G|------------|-------|----------|---------------|------------|-------|
D|------------|-------|----------|---------------|------------|-------|
A|-*7/9-------|--(9)--|--(9)--4--|--(4)-----x-x--|--7/9-------|--(9)--|
E|-*5/7-------|--(7)--|--(7)--2--|--(2)-----x-x--|--5/7-------|--(7)--|
    s s+h+q+e +   w   +   h+q q  +   h+q+e  s s     s s+h+q+e     w
   *solo guitar doubles first bar.
    the only thing I know about the solo is it's in B natural minor :(
   *wah is used on solo guitar

 /  *repeat 4 times   \
E|--------------------|
B|--------------------|
G|.------------------.|
D|.------------------.|
A|----4-4-4---4-4-4---|
E|----2-3-2---2-3-2---|
    E e s s Q e s s E
      pm---]  pm---]
   *solo cotinues - does a bend on 3rd string, 4th fret (note B),
    then sounds like a slide being run up and down the strings.

  end:
E|-----|-------------------|
B|-----|-------------------|
G|-----|-------------------|
D|-----|------------4-4----|
A|-----|----4-4-4-4-4-4-4--|
E|-----|----2-3-2-2-3-3-2--|
    W     E e s e s e e q
            pm-----]    pm
            
Submit corrections

comments powered by Disqus
↑ Back to top | Rammstein Tabs for Herzeleid. Lyrics for acoustic guitar and electric guitar. Tablatures and chords are parodies/interpretations of the original songs. You may use it for private study, scholarship, research or language learning purposes only