» » »

Herzeleid Tabs (ver.2)

Artists:  A B C D E F G H I J K L M N O P Q R S T U V W X Y Z # 

Herzeleid Tabs (ver.2)

Rammstein
Rating:
0/5 (0 votes)

Hard to play? Try these video lessons and learn fast.
                
pm = palm muted

Main Riff
e|----------------|
B|----------------|
G|----------------|
D|----------5-5---|
A|-4-4-4--4-4-4-4-|
E|-2-3-2--2-3-3-2-|
  pm

Chorus
|-------------------------|
|-------------------------|
|-------------------------|
|-2-4----4--4-5-5-4-------|
|-2-4----4--4-4-4-4-4-4-4-|
|-0-2--0-2--2-3-3-2-2-2-2-|
       pm 


 “HERZELEID!”
|----------------|
|----------------|
|----------------|x2
|----------9-9---|
|-8-8-8--8-8-8-8-|
|-6-7-6--6-7-7-6-|
  pm 

|----------------|
|----------------|
|----------------|x2
|----------8-8---|
|-7-7-7--7-7-7-7-|
|-5-6-5--5-6-6-5-|
  pm

This bit is played During After Till screams, during the keyboard part.
|---------------------------------|
|---------------------------------|
|---------------------------------|
|---------------------------------|
|---------------------------------|
|-4h6-6-6-7p6-4h6-4h6-6-6-6-6-6-6-|
      pm

|---------------------------------|
|---------------------------------|
|---------------------------------|
|---------------------------------|
|---------------------------------|
|-3h5-5-5-6p5-3h5-3h5-5-5-5-5-5-5-|
      pm
            
Hard to play? Try these video lessons and learn fast. | Correct




comments powered by Disqus
↑ Back to top | Tablatures and chords are parodies/interpretations of the original songs. You may use it for private study, scholarship, research or language learning purposes only