» » »

Rammstein, Heirate Mich Tabs (ver.2)

Artists:  A B C D E F G H I J K L M N O P Q R S T U V W X Y Z # 

Heirate Mich Tabs (ver.2)

Rammstein Tabs
 Rating:
4/5 (4 votes)
Heirate Mich lessons Tabs too difficult? Try these video lessons and learn fast
                Heirate Mich by Rammstein


Tablature
---------

Synth vocal during intro/outro tabbed for guitar:

A-----2--3--0--
E--2-----------

Main riff:

A--2-----2-----2-----2--5\4--4/5--
E--0--0--0--0--0--0--0--3\2--2/3--
      .     .     .

End of main riff:

A--2-----2-----2--2--
E--0--0--0--0--0--0--
      .     .

Keyboard tabbed for guitar:

B--12--11--10--12--11--10--8--5--

Synth vocal during verse tabbed for guitar:

E--2--5--0--2--1--0--

E--2--5--0--1--

Pre-chorus:

D--4----4--5--2--4----4--5--2--4--
A--2----2--3--0--2----2--3--0--2--

D--6----6-----6-----6--7--4/6----6-----6-----6--7--4/6--
A--4----4--0--4--0--4--5--2/4----4--0--4--0--4--5--2/4--
           .     .                  .     .

End of pre-chorus:

D-----6-----4--
A--0--4--0--2--
   .     .

Solo:

B--/5------------------------------------------------
G--/7-6^7^6^-6h7p6-----------------------6-7-6v------
D------------------7-----------------7-9--------7-9v-
A--------------------7-9-7-10-9-9-10-----------------
                     . . . .. . . .. . . . .*

e----------------12-11-9----9---------------------------------
B--9-12p9-12-12^---------12-----------------------------------
G---------------------------------13-------13-------13--------
D-----------------------------11v----11-11----11-11----11-11--

B--14-13h14-12h14-14p12-12---------------------
G--------------------------13-13h14p13-13h16~--

*Slightly release palm mute near the end.


Legend
------

.   =  palm mute
\   =  slide down
/   =  slide up
^   =  bend up
v   =  bend down
h   =  hammer on
p   =  pull off
~   =  vibrato


This is a great song and fun to play along with, also my first tab.
Questions, comments?
            
Submit corrections

comments powered by Disqus
↑ Back to top | Rammstein Tabs for Heirate Mich. Lyrics for acoustic guitar and electric guitar. Tablatures and chords are parodies/interpretations of the original songs. You may use it for private study, scholarship, research or language learning purposes only