>
 >
Heirate Mich

Heirate Mich Guitar Tabs

Rammstein - Heirate Mich chords, tabs, tablatures, lyrics

Guitar lessons | Add/correct | Request | Top 50 tabs Artists:  A B C D E F G H I J K L M N O P Q R S T U V W X Y Z 0-9

Heirate Mich Guitar Tabs – Rammstein

CD, Sheet music, Poster

Do you like Heirate Mich? Share with your friends now
Bass TabsBass Tabs v2TabsTabs v2Tabs v3Tabs v4Tabs v5Tabs v6
Symbols used in this tab:

Notes:
w - whole note
h - half note
q - quarter note
e - eighth note
s - sixteenth note

Rests:
W - whole rest
H - Half rest
Q - quarter rest
E - eighth rest
S - sixteenth rest

Articulations:
/ - slide up
\ - slide down
^ - hammer on/pull off
b - bend
pm - palm muting
~ - vibrato
< > - natural harmonics

  main bit:
 /          repeat 3 times           \
E|-----------------------------------|--------------------------|
B|-----------------------------------|--------------------------|
G|.---------------------------------.|--------------------------|
D|.---------------------------------.|--------------------------|
A|--2-----2-----2-----2---5\4---4/5--|--2-----2-----2---2-------|
E|--0-0-0-0-0-0-0-0-0-0-0-3\2-0-2/3--|--0-0-0-0-0-0-0-0-0-------|
    s s s s s s s s s s s s s s s s     s s s s s s s s s Q+E+S
      pm-]  pm-]  pm-]  pm    pm          pm-]  pm-]  pm

  before chorus:
E|--------------|------------|------------|---|
B|--------------|------------|------------|---|
G|--------------|------------|------------|---|
D|--------------|------------|------------|---|
A|--9-----9-10-7/9-----9-10-7/9-----9-10-7/9--|
E|--7---7-7-8--5/7---7-7-8--5/7---7-7-8--5/7--|
    h+e s e e  s h+e s e e  s h+e s e e  s w
        pm           pm           pm

E|------------------------------|------------------------------|
B|------------------------------|------------------------------|
G|------------------------------|------------------------------|
D|------------------------------|------------------------------|
A|--11---11-----11-----11---12-9/11---11-----11-----11---12---9/
E|--9--9-9--9-9-9--9-9-9--9-10-7/9--9-9--9-9-9--9-9-9--9-10---7/
    q  s s  s s s  s s s  s e  s q  s s  s s s  s s s  s s  S s
       pm   pm-]   pm-]   pm        pm   pm-]   pm-]   pm

E|----------------------------|---------------------|
B|----------------------------|---------------------|
G|----------------------------|---------------------|
D|----------------------------|---------------------|
A/11---11-----11-----11---12-9/10---10-----10-------|
E/9--9-9--9-9-9--9-9-9--9-10-7/8--8-8--8-8-8--------|
  q  s s  s s s  s s s  s e  s q  s s  s s s  Q+E+S
     pm   pm-]   pm-]   pm        pm   pm-]


  guitar solo:
E|-----------------------------------|-<5>~~-----------------------------|
B|-----------------------------5-----|-----------------------------------|
G|-----------------------------7b9---|------------------7~~--------------|
D|-----------------------------**----|-----------------------------------|
A|--2-----2-----2---2----------------|-----------------------------------|
E|--0-0-0-0-0-0-0-0-0----------------|-----------------------------------|
    s s s s s s s s e          q+e   |  h               h                |
                      **unison bend  |                                   |
                                    E|-----------------------------------|
                                    B|-----------------------------------|
                                    G|-----------------------------------|
                                    D|-----------------------------------|
                                    A|--9-----9-----9---9-----9---10-----|
                                    E|--7-7-7-7-7-7-7-7-7-7-7-7-7-8--5-5-|
                                        s s s s s s s s s s s s s s  s s
                                          pm-]  pm-]  pm  pm-]  pm   pm-]

E|-----------------------------------|-------------------------------------|
B|-----------------------------------|-------------------------------------|
G|--6~~-------------6^7-6------------|----------------------6-7-6~~--------|
D|------------------------7~~--------|------------------7-9----------------|
A|-----------------------------------|--7-9-7-10-9-9-10--------------------|
E|-----------------------------------|-------------------------------------|
 |  h               s s s s+q        |  s s s s  s s s  s s s s q+s        |
 |                                   |  pm---------------------]           |
 |                                   |                                     |
E|-----------------------------------|-------------------------------------|
B|-----------------------------------|-------------------------------------|
G|-----------------------------------|-------------------------------------|
D|-----------------------------------|-------------------------------------|
A|--9-----9-----9---9-----9---10-----|--9-----9------9----9-----9---10-----|
E|--7-7-7-7-7-7-7-7-7-7-7-7-7-8--5-5-|--7-7-7-7--7-7-7--7-7-7-7-7-7-8--5-5-|
    s s s s s s s s s s s s s s  s s    s s s s  s s s  s s s s s s s  s s
      pm-]  pm-]  pm  pm-]  pm   pm-]     pm-]   pm-]   pm  pm-]  pm   pm-]

E|-----------------------------------|------------------------------------12--|
B|-----------------------------------|-9--12^9-12b-*12b~r~~-------------------|
G|-(6~~)-----------------------------|----------------------------------------|
D|--------------7---9~~--------------|----------------------------------------|
A|-----------------------------------|----------------------------------------|
E|-----------------------------------|----------------------------------------|
 |  q+e         e   h                | s  s  s e    h+s                   e   |
 |                                   |             *vibrato during bend       |
 |                                   |              and release               |
E|-----------------------------------|----------------------------------------|
B|-----------------------------------|----------------------------------------|
G|-----------------------------------|----------------------------------------|
D|-----------------------------------|----------------------------------------|
A|--9-----9-----9---9-----9---10-----|-11------11-----11---11-----11---12-----|
E|--7-7-7-7-7-7-7-7-7-7-7-7-7-8--5-5-|-9--9--9-9--9-9-9--9-9--9-9-9--9-10-7-7-|
    s s s s s s s s s s s s s s  s s   s  s  s s  s s s  s s  s s s  s s  s s
      pm-]  pm-]  pm  pm-]  pm   pm-]     pm--]   pm-]   pm   pm-]   pm   pm-]

E|--11-9----9------------------------------|
B|-------12--------------------------------|
G|-----------------------------------------|
D|---------------11~~----------------------|
A|-----------------------------------------|
E|-----------------------------------------|
 |  s  s s  e    h+e+s                     |
 |                                         |
E|-----------------------------------------|
B|-----------------------------------------|
G|-----------------------------------------|
D|-----------------------------------------|
A|--11------11-----11---11-----11---12-----|
E|--9--9-9--9--9-9-9--9-9--9-9-9--9-10-7-7-|
    s  s s  s  s s s  s s  s s s  s s  s s
       pm-]    pm-]   pm   pm-]   pm   pm-]

E|--------------------------------------------------|
B|--------------------------------------14---13^14--|
G|--13-------13-------13-------13-------------------|
D|-----11-11----11-11----11-11----11-11-------------|
A|--------------------------------------------------|
E|--------------------------------------------------|
 |  s  s  s  s  s  s  s  s  s  s  s  s  e    s  s   |
 |                                                  |
E|--------------------------------------------------|
B|--------------------------------------------------|
G|--------------------------------------------------|
D|--------------------------------------------------|
A|--11-------11-------11----11-------11---12--------|
E|--9--9--9--9--9--9--9--9--9--9--9--9--9-10-7--7---|
    s  s  s  s  s  s  s  s  s  s  s  s  s s  s  s
       pm--]    pm--]    pm    pm--]    pm   pm--]

E|----------------------------------------------|
B|--12^14-14^12-12------------------------------|
G|-----------------13-13^14-13~~----------------|
D|----------------------------------------------|
A|----------------------------------------------|
E|----------------------------------------------|
 |  s  s  s  s  s  s  s  s  h                   |
 |                                              |
E|----------------------------------------------|
B|----------------------------------------------|
G|----------------------------------------------|
D|----------------------------------------------|
A|--11-------11-------11----11-----11---12------|
E|--9--9--9--9--9--9--9--9--9--9-9-9--9-10-7-7--|
    s  s  s  s  s  s  s  s  s  s s s  s s  s s
       pm--]    pm--]    pm    pm-]   pm   pm-]

 (end of solo over final chorus)
E|-----------|-----------|
B|-----------|-----------|
G|--13/16~~--|--(16~~)---|
D|-----------|---**------|
A|-----------|-----------|
E|-----------|-----------|
    e  h+q+e     h     H
                 **fade out here





Comments


Popular Rammstein tabs & chords
Bestrafe Mich 3 Bass Tabs
Ich Will 5 Bass Tabs
Nebel 2 Bass Tabs
Pussy 2 Bass Tabs
Tier Bass Tabs
Du Riechst So Gut (Solo Ver 3) Tabs
Kuss Mich Fellfrosch 1 Tabs
Liebe Ist Fuer Alle Da Intro Tabs
Ohne Dch Ukulele
Ohne Dich Ukulele


Song lyrics



↑ Back to top | Tablatures and chords are parodies/interpretations of the original songs. You may use it for private study, scholarship, research or language learning purposes only
© 2014 AZChords.com Contact us | Privacy policy | DMCA | Add/correct tabs | Request tabs | Top 50 tabs