» » »

Amerika Tabs (ver.3)

Artists:  A B C D E F G H I J K L M N O P Q R S T U V W X Y Z # 

Amerika Tabs (ver.3)

Rammstein
Rating:
4/5 (4 votes)

Hard to play? Try these video lessons and learn fast.
                drop D tuning - drop it down a complete step.

chorus1: Heavy Distortion
|-----------------------------------------------------------|
|-----------------------------------------------------------|
|-----------------------------------------------------------|
|--1--1--1--1--1--1--1-4-8--8--8--8--8--8-6--6--6--3--3--3--|
|--1--1--1--1--1--1--1-4-8--8--8--8--8--8-6--6--6--3--3--3--|
|--1--1--1--1--1--1--1-4-8--8--8--8--8--8-6--6--6--3--3--3--|
   We're all living in amerika,         amerika is wunderbar

|----------------------------------------------------------|
|----------------------------------------------------------|
|----------------------------------------------------------|
|--1--1--1--1--1--1--1-4-8--8--8--8--11-11-3-3--11-11-3-3--|
|--1--1--1--1--1--1--1-4-8--8--8--8--11-11-3-3--11-11-3-3--|
|--1--1--1--1--1--1--1-4-8--8--8--8--11-11-3-3--11-11-3-3--|
   We're all living in amerika,      a--merika, a--merika

verse1: when playing the two riffs in the verse, play them clean; listen to the song to 
out when to play them.

         |---------|          |---------|
         |---------|          |---------|
 Riff 1  |---------|   riff 2 |---------|
         |------5--|          |------6--|
         |---6-----|          |----8----|
         |-8-------|          |-10------|

Wenn getanzt wird, will ich führen,
auch wenn ihr euch alleine dreht,
lasst euch ein wenig kontrollieren,
Ich zeige euch wie´s richtig geht.
Wir bilden einen lieben Reigen,
die Freiheit spielt auf allen Geigen,
Musik kommt aus dem Weißen Haus,
Und vor Paris steht Mickey Maus.

chorus2: Heavy Distortion
|-----------------------------------------------------------|
|-----------------------------------------------------------|
|-----------------------------------------------------------|
|--1--1--1--1--1--1--1-4-8--8--8--8--8--8-6--6--6--3--3--3--|
|--1--1--1--1--1--1--1-4-8--8--8--8--8--8-6--6--6--3--3--3--|
|--1--1--1--1--1--1--1-4-8--8--8--8--8--8-6--6--6--3--3--3--|
   We're all living in amerika,         amerika is wunderbar

|----------------------------------------------------------|
|----------------------------------------------------------|
|----------------------------------------------------------|
|--1--1--1--1--1--1--1-4-8--8--8--8--11-11-3-3--11-11-3-3--|
|--1--1--1--1--1--1--1-4-8--8--8--8--11-11-3-3--11-11-3-3--|
|--1--1--1--1--1--1--1-4-8--8--8--8--11-11-3-3--11-11-3-3--|
   We're all living in amerika,      a--merika, a--merika

Verse 2: use same riffs as verse 1

Ich kenne Schritte, die sehr nützen,
und werde euch vor Fehltritt schützen,
und wer nich tanzen will am Schluss,
weiß noch nicht das er Tanzen muss!
Wir bilden einen lieben Reigen,
ich werde Euch die Richtung zeigen,
nach Afrika kommt Santa Claus,
und vor Paris steht Mickey Maus.

chorus3: Heavy Distortion
|-----------------------------------------------------------|
|-----------------------------------------------------------|
|-----------------------------------------------------------|
|--1--1--1--1--1--1--1-4-8--8--8--8--8--8-6--6--6--3--3--3--|
|--1--1--1--1--1--1--1-4-8--8--8--8--8--8-6--6--6--3--3--3--|
|--1--1--1--1--1--1--1-4-8--8--8--8--8--8-6--6--6--3--3--3--|
   We're all living in amerika,         amerika is wunderbar

|----------------------------------------------------------|
|----------------------------------------------------------|
|----------------------------------------------------------|
|--1--1--1--1--1--1--1-4-8--8--8--8--11-11-3-3--11-11-3-3--|
|--1--1--1--1--1--1--1-4-8--8--8--8--11-11-3-3--11-11-3-3--|
|--1--1--1--1--1--1--1-4-8--8--8--8--11-11-3-3--11-11-3-3--|
   We're all living in amerika,      a--merika, a--merika

|------------------------------------------------------------|
|------------------------------------------------------------|
|------------------------------------------------------------|
|--1--1--1--1--1--1--1-4-8--8--8--8--8--8-6--6--6---3--3--3--|
|--1--1--1--1--1--1--1-4-8--8--8--8--8--8-6--6--6---3--3--3--|
|--1--1--1--1--1--1--1-4-8--8--8--8--8--8-6--6--6---3--3--3--|
   We're all living in amerika,           coca cola wonderbra

|----------------------------------------------------------|
|----------------------------------------------------------|
|----------------------------------------------------------|
|--1--1--1--1--1--1--1-4-8--8--8--8--11-11-3-3--11-11-3-3--|
|--1--1--1--1--1--1--1-4-8--8--8--8--11-11-3-3--11-11-3-3--|
|--1--1--1--1--1--1--1-4-8--8--8--8--11-11-3-3--11-11-3-3--|
   We're all living in amerika,      a--merika, a--merika

Bridge:                             (play only this bit after keyboard solo)
|-----------------------------------||-----------------------------------|
|-----------------------------------||-----------------------------------|
|-----------------------------------||-----------------------------------|
|-1--2-2-1-2--2-1--2--2--2--1-3-3-3-||-1--2-2-1-2--2-1--2--2--2--7-7-4-4-|
|-1--2-2-1-2--2-1--2--2--2--1-3-3-3-||-1--2-2-1-2--2-1--2--2--2--7-7-4-4-|
|-1--2-2-1-2--2-1--2--2--2--1-3-3-3-||-1--2-2-1-2--2-1--2--2--2--7-7-4-4-|

last chorus: Heavy Distortion
|-----------------------------------------------------------|
|-----------------------------------------------------------|
|-----------------------------------------------------------|
|--1--1--1--1--1--1--1-4-8--8--8--8--8--8-6--6--6--3--3--3--|
|--1--1--1--1--1--1--1-4-8--8--8--8--8--8-6--6--6--3--3--3--|
|--1--1--1--1--1--1--1-4-8--8--8--8--8--8-6--6--6--3--3--3--|
   We're all living in amerika,         amerika is wunderbar

|----------------------------------------------------------|
|----------------------------------------------------------|
|----------------------------------------------------------|
|--1--1--1--1--1--1--1-4-8--8--8--8--11-11-3-3--11-11-3-3--|
|--1--1--1--1--1--1--1-4-8--8--8--8--11-11-3-3--11-11-3-3--|
|--1--1--1--1--1--1--1-4-8--8--8--8--11-11-3-3--11-11-3-3--|
   We're all living in amerika,      a--merika, a--merika

|-----------------------------------------------------------------|
|-----------------------------------------------------------------|
|-----------------------------------------------------------------|
|--1--1--1--1--1--1--1-4-8--8--8--8--8--8-6--6--6---3--3--3--3--3-|
|--1--1--1--1--1--1--1-4-8--8--8--8--8--8-6--6--6---3--3--3--3--3-|
|--1--1--1--1--1--1--1-4-8--8--8--8--8--8-6--6--6---3--3--3--3--3-|
   We're all living in amerika,           coca cola sometimes war

|----------------------------------------------------------|
|----------------------------------------------------------|
|----------------------------------------------------------|
|--1--1--1--1--1--1--1-4-8--8--8--8--11-11-3-3--11-11-3-3--|
|--1--1--1--1--1--1--1-4-8--8--8--8--11-11-3-3--11-11-3-3--|
|--1--1--1--1--1--1--1-4-8--8--8--8--11-11-3-3--11-11-3-3--|
   We're all living in amerika,      a--merika, a--merika

outro:
|-----------------------------------||-----------------------------------|
|-----------------------------------||-----------------------------------|
|-----------------------------------||-----------------------------------|
|-1--2-2-1-2--2-1--2--2--2--1-3-3-3-||-1--2-2-1-2--2-1--2--2--2--7-7-4-4-|
|-1--2-2-1-2--2-1--2--2--2--1-3-3-3-||-1--2-2-1-2--2-1--2--2--2--7-7-4-4-|
|-1--2-2-1-2--2-1--2--2--2--1-3-3-3-||-1--2-2-1-2--2-1--2--2--2--7-7-4-4-|

Please rate, leave comments etc!

Thx.
            
Hard to play? Try these video lessons and learn fast. | Correct




comments powered by Disqus
↑ Back to top | Tablatures and chords are parodies/interpretations of the original songs. You may use it for private study, scholarship, research or language learning purposes only