>
 >
Amerika

Amerika Guitar Tabs

Rammstein - Amerika chords, tabs, tablatures, lyrics

Guitar lessons | Add/correct | Request | Top 50 tabs Artists:  A B C D E F G H I J K L M N O P Q R S T U V W X Y Z 0-9

Amerika Guitar Tabs – Rammstein

CD, Sheet music, Poster

Do you like Amerika? Share with your friends now
Bass TabsBass Tabs v2TabsTabs v2Tabs v3Tabs v4Tabs v5Tabs v6Tabs v7Tabs v8
Band: Rammstein

Drop C

Album Version:

Main Riff (Richard & Paul):

D|-------------------------------------------------------------------|
A|-------------------------------------------------------------------|
F|-------------------------------------------------------------------|
C|-0-0-0-0-0-0-0-0-0-0-0-0-0-0-0-0-0-2-2-2-2-2-2-2-2-2-2-2-2-2-2-2-2-|
G|-0-0-0-0-0-0-0-0-0-0-0-0-0-0-0-0-0-2-2-2-2-2-2-2-2-2-2-2-2-2-2-2-2-|
C|-0-0-0-0-0-0-0-0-0-0-0-0-0-0-0-0-0-2-2-2-2-2-2-2-2-2-2-2-2-2-2-2-2-|

D|-------------------------------------------------------------------|
A|-------------------------------------------------------------------|
F|-------------------------------------------------------------------|
C|-0-0-0-0-0-0-0-0-3-3-3-3-3-3-3-3-3-2-2-2-2-2-2-2-2-5-5-5-5-5-5-5-5-|
G|-0-0-0-0-0-0-0-0-3-3-3-3-3-3-3-3-3-2-2-2-2-2-2-2-2-5-5-5-5-5-5-5-5-|
C|-0-0-0-0-0-0-0-0-3-3-3-3-3-3-3-3-3-2-2-2-2-2-2-2-2-5-5-5-5-5-5-5-5-|

Verse:

Richard

D|---------------------------------------------------------------|
A|---------------------------------------------------------------|
F|---------------------------------------------------------------|
C|---------------------------------------------------------------| x2
G|-0-2-2-2-2--2-2-2-2-2--2-2-2-0-0-2-2-2-2--2-2-2-2-2--5-5-0-0---|
C|-0-2-2-2-2--2-2-2-2-2--2-2-2-0-0-2-2-2-2--2-2-2-2-2--5-5-0-0---|
pm . . . . .  . . . . .  . . . . . . . . .  . . . . .  . . . .

Paul

D|---------------------------------------------------------------|
A|------0--------------------------------------------------------|
F|----0----------------------------------------------------------|
C|--2------------------------------------------------------------|x2
G|---------------------------------------------------------------|
C|---------------------------------------------------------------| 

Richard

D|---------------------------------------------------------------|
A|---------------------------------------------------------------|
F|---------------------------------------------------------------|
C|---------------------------------------------------------------|
G|-0-2-2-2-2--2-2-2-2-2--2-2-2-0-0-4-4-4-4--4-4-4-4-4--4-4-4-4---|
C|-0-2-2-2-2--2-2-2-2-2--2-2-2-0-0-4-4-4-4--4-4-4-4-4--4-4-4-4---|
pm . . . . .  . . . . .  . . . . . . . . .  . . . . .  . . . .

Paul

D|---------------------------------------------------------------|
A|--------------------------------------2------------------------|
F|------------------------------------2--------------------------|
C|----------------------------------4----------------------------|
G|---------------------------------------------------------------|
C|---------------------------------------------------------------| 

Richard

D|---------------------------------------------------------------|
A|---------------------------------------------------------------|
F|---------------------------------------------------------------|
C|---------------------------------------------------------------|
G|--4-2-2-2-2--2-5-5-5-5--5-5-5-5-5-4-4-4-4--4-4-4-4-4--4-4-4-4--|
C|--4-2-2-2-2--2-5-5-5-5--5-5-5-5-5-4-4-4-4--4-4-4-4-4--4-4-4-4--|
pm  . . . . .  . . . . .  . . . . . . . . .  . . . . .  . . . .

Paul

D|---------------------------------------------------------------|
A|--------------------------------------2------------------------|
F|------------------------------------2--------------------------|
C|----------------------------------4----------------------------|
G|---------------------------------------------------------------|
C|---------------------------------------------------------------| 

Bridge (Richard & Paul):

D|--------------------------------------------------------------------------|
A|--------------------------------------------------------------------------|
F|--------------------------------------------------------------------------|
C|--------------------------------------------------------------------------|
G|--------------------------------------------------------------------------|
C|-0-2-2-2-2vbr--0-2-2-2-2vbr--0-2-2-2-2-0-2-2-2-2vbr-0-2-2-2-2vbr--5-5-0-0-|

Note: vbr -> bend and release this note twice

Keyboard solo:

Richard

D|--------------------------------------------------------------------------|
A|--------------------------------------------------------------------------|
F|9-10-10-10-10--10-14-14-14-14--14-14-14-14-14-9-9-9-9--9-9-9-9-9--9-9-9-9-|
C|x--x--x--x--x---x--x--x--x--x---x--x--x--x--x-x-x-x-x--x-x-x-x-x--x-x-x-x-|
G|7--8--8--8--8---8-12-12-12-12--12-12-12-12-12-7-7-7-7--7-7-7-7-7--7-7-7-7-|
C|--------------------------------------------------------------------------|


D|--------------------------------------------------------------------------|
A|--------------------------------------------------------------------------|
F|9-10-10-10-10--10-14-14-14-14--14-17-17-17-17-9-9-9-9--9-9-9-9-9--9-9-9-9-|
C|x--x--x--x--x---x--x--x--x--x---x--x--x--x--x-x-x-x-x--x-x-x-x-x--x-x-x-x-|
G|7--8--8--8--8---8-12-12-12-12--12-15-15-15-15-7-7-7-7--7-7-7-7-7--7-7-7-7-|
C|--------------------------------------------------------------------------|

Paul

D|-------------------------------------------------------------------|
A|-------------------------------------------------------------------|
F|-------------------------------------------------------------------|
C|--2-3-3-3-3---3-7-7-7-7---7-7-7-7-7-2-2-2-2---2-2-2-2-2---2-2-2-2--|x2
G|--2-3-3-3-3---3-7-7-7-7---7-7-7-7-7-2-2-2-2---2-2-2-2-2---2-2-2-2--|
C|--2-3-3-3-3---3-7-7-7-7---7-7-7-7-7-2-2-2-2---2-2-2-2-2---2-2-2-2--|  

Fill (Richard & Paul):

D|--------------------------------------|
A|--------------------------------------|
F|--------------------------------------|
C|--------------------------------------|
G|--------------------------------------|
C|-0-2-2-2-2vbr-0-2-2-2-2vbr--5-5-0-0---|

End (Richard & Paul):

D|--------------------------------------------------------------------------|
A|--------------------------------------------------------------------------|
F|--------------------------------------------------------------------------|
C|--------------------------------------------------------------------------|
G|--------------------------------------------------------------------------|
C|-0-2-2-2-2vbr--0-2-2-2-2vbr--0-2-2-2-2-0-2-2-2-2vbr-0-2-2-2-2vbr--5-------|
pm                                                                  .

Main Riff x1
Verse     x1
Main Riff x1
Verse     x1
Main Riff x2
Bridge    x2
Solo      x1
Fill      x1
Main Riff x2
End       x2

-----------------------------------------------------------------------------

-----------------------------------------------------------------------------


Live Version:

Intro (Richard):

D|-------------------------------------------------------------------|
A|-------------------------------------------------------------------|
F|-------------------------------------------------------------------|
C|-----0-------0-------0-------0-------2-------2-------2-------2-----|
G|---0---0---0---0---0---0---0---0---2---2---2---2---2---2---2---2---|
C|-0-------0-------0-------0-------2-------2-------2-------2---------|

D|-------------------------------------------------------------------|
A|-------------------------------------------------------------------|
F|-------------------------------------------------------------------|
C|-----0-------0-------3-------3-------2-------2-------5-------5-----|
G|---0---0---0---0---3---3---3---3---2---2---2---2---5---5---5---5---|
C|-0-------0-------3-------3-------2-------2-------5-------5---------|

Main Riff (Richard & Paul):

D|---------------------------------------------------------------------|
A|---------------------------------------------------------------------|
F|---------------------------------------------------------------------|
C|-0-0-0-0-0----0-0-0-0-0----0-0-0-0-0-2-2-2-2----2-2-2-2-2----2-2-2-2-|
C|-0-0-0-0-0----0-0-0-0-0----0-0-0-0-0-2-2-2-2----2-2-2-2-2----2-2-2-2-|
G|-0-0-0-0-0----0-0-0-0-0----0-0-0-0-0-2-2-2-2----2-2-2-2-2----2-2-2-2-|

D|---------------------------------------------------------------------|
A|---------------------------------------------------------------------|
F|---------------------------------------------------------------------|
C|-0-0-0-0-0----0-3-3-3-3----3-3-3-3-3-2-2-2-2----2-5-5-5-5----5-5-5-5-|
G|-0-0-0-0-0----0-3-3-3-3----3-3-3-3-3-2-2-2-2----2-5-5-5-5----5-5-5-5-|
C|-0-0-0-0-0----0-3-3-3-3----3-3-3-3-3-2-2-2-2----2-5-5-5-5----5-5-5-5-|

Verse:

Richard

D|--------------------------------------------------------------------|
A|--------------------------------------------------------------------|
F|--------------------------------------------------------------------|
C|--------------------------------------------------------------------|x2
G|-0-2-2-2-2--2-2-2-2-2--2-2-2-0-0-2-2-2-2--2-2-2-2-2--2-2/5-5-0-0----|
C|-0-2-2-2-2--2-2-2-2-2--2-2-2-0-0-2-2-2-2--2-2-2-2-2--2-2/5-5-0-0----|
pm . . . . .  . . . . .  . . . . . . . . .  . . . . .  . . . . . .

Note: Play both notes, the 2 before the slide and the 5 after the slide

Paul

D|---------------------------------------------------------------|
A|------0--------------------------------------------------------|
F|----0----------------------------------------------------------|
C|--2------------------------------------------------------------|x2
G|---------------------------------------------------------------|
C|---------------------------------------------------------------| 

Richard

D|---------------------------------------------------------------|
A|---------------------------------------------------------------|
F|---------------------------------------------------------------|
C|---------------------------------------------------------------|
G|-0-2-2-2-2--2-2-2-2-2--2-2-2-0-0-4-4-4-4--4-4-4-4-4--4-4-4-4---|
C|-0-2-2-2-2--2-2-2-2-2--2-2-2-0-0-4-4-4-4--4-4-4-4-4--4-4-4-4---|
pm . . . . .  . . . . .  . . . . . . . . .  . . . . .  . . . .

Paul

D|---------------------------------------------------------------|
A|--------------------------------------2------------------------|
F|------------------------------------2--------------------------|
C|----------------------------------4----------------------------|
G|---------------------------------------------------------------|
C|---------------------------------------------------------------| 

Richard

D|---------------------------------------------------------------|
A|---------------------------------------------------------------|
F|---------------------------------------------------------------|
C|---------------------------------------------------------------|
G|--4-2-2-2-2--2-5-5-5-5--5-5-5-5-5-4-4-4-4--4-4-4-4-4--4-4-4-4--|
C|--4-2-2-2-2--2-5-5-5-5--5-5-5-5-5-4-4-4-4--4-4-4-4-4--4-4-4-4--|
pm  . . . . .  . . . . .  . . . . . . . . .  . . . . .  . . . .

Paul

D|---------------------------------------------------------------|
A|--------------------------------------2------------------------|
F|------------------------------------2--------------------------|
C|----------------------------------4----------------------------|
G|---------------------------------------------------------------|
C|---------------------------------------------------------------| 


Richard Fill:

D|-------------------------------------|
A|-------------------------------------|
F|-------------------------------------|
C|-------------------------------------|
G|-0-2-2-2-2--0-2-2-2-2--2-2-2-2-2-----|
C|-0-2-2-2-2--0-2-2-2-2--2-2-2-2-2-----|
pm . . . . .  . . . . .  . . . . .

Bridge (Richard & Paul):

D|--------------------------------------------------------------------------|
A|--------------------------------------------------------------------------|
F|--------------------------------------------------------------------------|
C|--------------------------------------------------------------------------|
G|--------------------------------------------------------------------------|
C|-0-2-2-2-2vbr--0-2-2-2-2vbr--0-2-2-2-2-0-2-2-2-2vbr-0-2-2-2-2vbr--5-5-0-0-|

Keyboard solo:

Richard

D|--------------------------------------------------------------------------|
A|--------------------------------------------------------------------------|
F|9-10-10-10-10--10-14-14-14-14--14-14-14-14-14-9-9-9-9--9-9-9-9-9--9-9-9-9-|
C|x--x--x--x--x---x--x--x--x--x---x--x--x--x--x-x-x-x-x--x-x-x-x-x--x-x-x-x-|
G|7--8--8--8--8---8-12-12-12-12--12-12-12-12-12-7-7-7-7--7-7-7-7-7--7-7-7-7-|
C|--------------------------------------------------------------------------|


D|--------------------------------------------------------------------------|
A|--------------------------------------------------------------------------|
F|9-10-10-10-10--10-14-14-14-14--14-17-17-17-17-9-9-9-9--9-9-9-9-9--9-9-9-9-|
C|x--x--x--x--x---x--x--x--x--x---x--x--x--x--x-x-x-x-x--x-x-x-x-x--x-x-x-x-|
G|7--8--8--8--8---8-12-12-12-12--12-15-15-15-15-7-7-7-7--7-7-7-7-7--7-7-7-7-|
C|--------------------------------------------------------------------------|

Paul

D|-------------------------------------------------------------------|
A|-------------------------------------------------------------------|
F|-------------------------------------------------------------------|
C|--2-3-3-3-3---3-7-7-7-7---7-7-7-7-7-2-2-2-2---2-2-2-2-2---2-2-2-2--|x2
G|--2-3-3-3-3---3-7-7-7-7---7-7-7-7-7-2-2-2-2---2-2-2-2-2---2-2-2-2--|
C|--2-3-3-3-3---3-7-7-7-7---7-7-7-7-7-2-2-2-2---2-2-2-2-2---2-2-2-2--|  


End (Richard & Paul):

D|--------------------------------------------------------------------------|
A|--------------------------------------------------------------------------|
F|--------------------------------------------------------------------------|
C|--------------------------------------------------------------------------|
G|--------------------------------------------------------------------------|
C|-0-2-2-2-2vbr--0-2-2-2-2vbr--0-2-2-2-2-0-2-2-2-2vbr-0-2-2-2-2vbr--5-------|
pm                                                                  .

Intro        x1
Main Riff    x1
Verse        x1
Richard Fill x1
Main Riff    x1
Verse        x1
Richard Fill x1
Main Riff    x2
Bridge       x2
Solo         x1
Bridge       x1
Main Riff    x2
Bridge       x4



Thanks for support: Rammkopf and SchwarzesGlas

have fun ;)





Comments


Popular Rammstein tabs & chords
Du Riechst So Gut Bass Tabs
Klavier Bass Tabs
Rammstein Bass Tabs
Du Hast Chords
FeuerräDer 1 Tabs
Heirate Mich 1 Tabs
Mann Gegen Mann Tabs
Seeman 2 Tabs
Ohne Dich Ukulele
Stirb Nicht Vor Mir Dont Die Before I Do Ukulele


Song lyrics



↑ Back to top | Tablatures and chords are parodies/interpretations of the original songs. You may use it for private study, scholarship, research or language learning purposes only
© 2014 AZChords.com Contact us | Privacy policy | DMCA | Add/correct tabs | Request tabs | Top 50 tabs