» » »

Guerrilla Radio  Tabs (ver.2)

Artists:  A B C D E F G H I J K L M N O P Q R S T U V W X Y Z # 

Guerrilla Radio  Tabs (ver.2)

Rage Against The Machine
Rating:
0/5 (0 votes)

Tabs too difficult? Try these video lessons and learn fast.
                I saw an incomplete and wrong tab of this song submitted here,
so i decided to send a more complete one (i don't know if everything
it's correct, this is a tab that i found a lot of time ago,
i've just been playing chours, so i don't know if the rest it's okay.

...however the intro can also
be played this way (can be harder or simpler, depends)

Chorus
E-------------------------|
B-------------------------|
G---------------2-4-------|
D-2-4-4-2-4-4-2-2-4-------|
A-2-4-4-2-4-4-2-0-2-------|
E-0-2-2-0-2-2-0-----------|

..and ok, don't start laughing now! I know that it's obvious you can
 play also this way... But some people may don't know basic gutitar
laws (every note found in a previous chord can be found 5 notes after
in the next chord...but not always!)

Rage Against The Machine: Guerrilla Radio
Guerrila Radio
The Battle Of Los Angeles (Thats what the guy on K-Rock Said)
Rage Against The Machine

Standard E Tuning

I just heard this on the radio and it kicks total ass! Here it is, if u have heard it

Intro                           Chorus
E----------------------------|-------------------------|
B----------------------------|-------------------------|
G----------------------------|-------------------------|
D----------------------------|-------------------------|
A-2-4-4-2-4-4-2-777999-------|-2-4-4-2-4-4-2-7/9-------|
E-0-2-2-0-2-2-0-555777-------|-0-2-2-0-2-2-0-5/7-------|

Verse: Played with wah-wah pedal (when u guys hear it, tab it right, cause this is probly wrong)
  wah wah wah wah wah wah
E----------------------------|-------------------------------|
B----------------------------|-------------------------------|
G----------------------------|-------------------------------|
D--4---4----4--4---4---4-----|-------------------------------|
A----------------------------|-------------------------------|
E----------------------------|-------------------------------|

Chorus: Same as intro, but add this in b4 going back into the verse:

E----------------------------|-------------------------------|
B----------------------------|-------------------------------|
G----------------------------|----------------------4--------|
D----------------------------|-------7-4-4-6-4-4-2--4--------|
A----------------------------|-------------------------------|
E----------------------------|-------------------------------|

Solo: For begining, play intro with a flanger and the wah-wah open
Then there's some funky harmonic sh*t going on during the high solo

High Solo ( the harmonic sh*t)
E----------------------------|-------------------------------|
B-----3times----10-----------|--------------9h10p9h10p9h10---|
G--11-9-11-9-11--------------|---11-9-11-9-------------------|
D----------------------------|-------------------------------|
A------------------/-/--/----|-------------------------------|
E-----------------/--/--/----|-------------------------------|

E----------------------------|-------------------------------|
B-13-12-11-10----------------|-------------------------------|
G-11-10-9--8-----------------|-------------------------------|
D----------------------------|-------------------------------|
A----------------------------|-------------------------------|
E----------------------------|
Zack rages "It has to start sometime, it has to start somewhere, what better place then here, what better place than now!"


"Oh, Hell, Can't Stop us Now!!!!!!!!!!!"
Last 2 times switch to wah open
E----------------------------|-x-x-x-x-x-x-x-x-x-x-x-x-x-|
B----------------------------|-x-x-x-x-x-x-x-x-x-x-x-x-x-|
G----------------------------|-x-x-x-x-x-x-x-x-x-x-x-x-x-|
D----------------------------|-x-x-x-x-x-x-x-x-x-x-x-x-x-|
A---4---4b5r2-----2---2b5r4--|-x-x-x-x-x-x-x-x-x-x-x-x-x-|
E-0-2-0-2b3r2---0-2-0-2b3r2--|-x-x-x-x-x-x-x-x-x-x-x-x-x-|
            
Tabs too difficult? Try these video lessons and learn fast.




comments powered by Disqus
↑ Back to top | Tablatures and chords are parodies/interpretations of the original songs. You may use it for private study, scholarship, research or language learning purposes only