» » »

Fistful Of Steel Tabs (ver.1)

Artists:  A B C D E F G H I J K L M N O P Q R S T U V W X Y Z # 

Fistful Of Steel Tabs (ver.1)

Rage Against The Machine
Rating:
0/5 (0 votes)

Hard to play? Try these video lessons and learn fast.
                
This is all I have figured out of this song..

The intro with the sounds is played on the a-string (muted w/frethand) and the

'frethand' moves up and down the a string changing the sound.
^= Artificial Harmonic

-----------------------------0-3^--------------------------------0-12^--------
----4--4-----------4--4------0-3^-----4--4-----------4--4--------0-12^--------
-0--4--4--x--x--0--4--4--x-x-------0--4--4--x--x--0--4--4--x--x----12^--------
-0--2--2--x--x--0--2--2--x-x-------0--2--2--x--x--0--2--2--x--x---------------
 Ulternate Struming...                                                        

-----------------------------------|-----------|-----------|------------------
-----------------------------------|------0----|------0----|----x-0--9^-------
-----------------------------0-5^--|---0--0----|---0--0----|--0-x-0--9^-------
----4--4-----------4--4------0-5^--|---0-------|---0-------|--0---------------
-0--4--4--x--x--0--4--4--x-x-------|-----------|-----------|------------------
-0--2--2--x--x--0--2--2--x-x-------|-----------|-----------|------------------
                                     1st time    2nd time    3rd time
            
Hard to play? Try these video lessons and learn fast. | Correct




comments powered by Disqus
↑ Back to top | Tablatures and chords are parodies/interpretations of the original songs. You may use it for private study, scholarship, research or language learning purposes only