» » »

Rage Against The Machine, Guerrilla Radio  Tabs (ver.3)

Artists:  A B C D E F G H I J K L M N O P Q R S T U V W X Y Z # 

Guerrilla Radio  Tabs (ver.3)

Rage Against The Machine Tabs
 Rating:
4/5 (4 votes)
Guerrilla Radio  lessons Tabs too difficult? Try these video lessons and learn fast
                Band: Rage Against The Machine
Tuning: Standard


Just for the intro during the first X8
use the Boss TR-2 Tremelo pedal, then for
the rest of the song don`t use it. Also use a
Flanger for the chorus 2 on the second part to
get that weird sound.



Intro:   X8  w/TR-2             X7                 X1
e|--------------------||--------------------||-------------|
b|--------------------||--------------------||-------------|
g|--------------------||--------------------||-------------|
d|----------------2-4-||----------------2-4-||-2-----------|
a|-2-4-4--4-4-4-4-0-2-||-2-4-4--4-4-4-4-0-2-||-0-4--2-6-4--|
e|-0-2-2--0-2-0-2-----||-0-2-2--0-2-0-2-----||---2--0-4-2--|






Verse 1:   X8          w/wah                    X1 w/wah
e|-------------------------------------||------------------------|
b|-------------------------------------||------------------------|
g|-------------------------------------||------------------------|
d|-------------------------------------||------------------------|
a|-------------------------------------||------------------------|
e|-0h2-0h2-0h2-0h2-0h2-0h2-0h2-0h2-0h2-||-0h2-0h2-0h2-0h2-0h2----|
  o+  o+  o+  o+  o+  o+  o+  o+  o+     o+  o+  o+  o+  o+




Chorus 1:   X7                 X1
e|--------------------||-------------|
b|--------------------||-------------|
g|--------------------||-------------|
d|----------------2-4-||-2-----------|
a|-2-4-4--4-4-4-4-0-2-||-0-4--2-6-4--|
e|-0-2-2--0-2-0-2-----||---2--0-4-2--|





Verse 2:       X3     w/wah                      X1   w/wah
e|-------------------------------------||------------------------|
b|-------------------------------------||------------------------|
g|-------------------------------------||------------------------|
d|-------------------------------------||------------------------|
a|-------------------------------------||------------------------|
e|-0h2-0h2-0h2-0h2-0h2-0h2-0h2-0h2-0h2-||-0h2-0h2-0h2-0h2-0h2----|
  o+  o+  o+  o+  o+  o+  o+  o+  o+     o+  o+  o+  o+  o+




   Chorus 2 PT 1:          Chorus PT 2: 
        X8                X8  w/Flanger
e|--------------------||--------------------|
b|--------------------||--------------------|
g|--------------------||--------------------|
d|----------------2-4-||--------------------|
a|-2-4-4--4-4-4-4-0-2-||----------------0-2-|
e|-0-2-2--0-2-0-2-----||-0-2-2--0-2-0-2-----|




For the Solo here, use a DigiTech whammy and set it
up 1 octave, and use a wah. Also flip the toggleswitch
back and forth.

Solo:     X3  w/wah            Flip toglle switch fastly
                              slowly increasing wah.  X1
e|--------------------------||------------------------------|
b|--------------------------||------------------------------|
g|--------------------------||------------------------------|
d|--------------------------||------------------------------|
a|----------------------h12-||------------------------------|
e|-h14--h12-h14--h12-h14----||------------------------------|
  o+   o+  o+   o+  o+ +      >>>>>>>>>>>>>>>>>>>>>>>>>>>>>>
                              




              X3                        Solo Outro:  X1
e|------------------------------------||-----------------|
b|------------------------------------||-----------------|
g|------------------------------------||---------h14-h13-|
d|------------------------------------||-h14-h13-h14-h13-|
a|-h14--h12-h14--h12-h14h15h14h12-----||-h14-h13---------|
e|--------------------------------h14-||-----------------|
  o+   o+  o+   o+  +   +  +  +  +      o+  o+  o+  o+




                           
Outro:      X3                                   X3 
e|-------------------------------||-------------------------x-x-x-x-x-x-|
b|-------------------------------||-------------------------x-x-x-x-x-x-|
g|-------------------------------||-------------------------x-x-x-x-x-x-|
d|-------------------------------||-------------------------x-x-x-x-x-x-|
a|-------------------------------||-------------------------x-x-x-x-x-x-|
e|-0h2/14--0h2/14--0h2/14--------||-0h2/14--0h2/14--0h2/14--x-x-x-x-x-x-|


That`s all, came as close to it as I could!
Hope It`s good! :)


|-------------------|
|    Guitar Key:    |
|                   |
|  x= Mute          |
|  += Wah in        |
|  o= Wah out       |
|  >= Increase wah  |
|  p= Pull off      |
|  h Hammer on      |
|  /= Slide up      |
|-------------------| 
            
Submit corrections

comments powered by Disqus
↑ Back to top | Rage Against The Machine Tabs for Guerrilla Radio . Lyrics for acoustic guitar and electric guitar. Tablatures and chords are parodies/interpretations of the original songs. You may use it for private study, scholarship, research or language learning purposes only