» » »

Rage Against The Machine, Guerrilla Radio  Bass tabs (ver.1)

Artists:  A B C D E F G H I J K L M N O P Q R S T U V W X Y Z # 

Guerrilla Radio  Bass tabs (ver.1)

Rage Against The Machine Tabs
Rating:
0/5 (0 votes)
Guerrilla Radio  lessons Tabs too difficult? Try these video lessons and learn fast
                "(2)
chorus:
G-------------------
D-------------------
A---------------0-2-
E-0-2-2-0-2-0-2-----

at the end of the chorus:
G-2-------1---------
D---4---2---4---2-4-
A-------------------
E-------------------

verse:
G-2/0-----------2-2---4-4---5-5-
D-------------------------------
A-------------------------------
E-2/0---------------------------

end riff:
G-------------------------------
D-------------------------------
A-------------------------------
E-0-2-0-14/-0-2-0-14/-0-2-0-14/-
"            
Submit corrections

comments powered by Disqus
↑ Back to top | Rage Against The Machine Bass for Guerrilla Radio . Lyrics for acoustic guitar and electric guitar. Tablatures and chords are parodies/interpretations of the original songs. You may use it for private study, scholarship, research or language learning purposes only