>
 >
Renegade Of Funk

Renegade Of Funk Guitar Tabs

Rage Against The Machine - Renegade Of Funk chords, tabs, tablatures, lyrics

Guitar lessons | Add/correct | Request | Top 50 tabs Artists:  A B C D E F G H I J K L M N O P Q R S T U V W X Y Z 0-9

Renegade Of Funk Guitar Tabs – Rage Against The Machine

CD, Sheet music, Poster

Do you like Renegade Of Funk? Share with your friends now
Tabs
rage against the machine
renegades of funk	

intro with wah-wah pedel
E)--12-8-12-8-12-8-12-8-13-10-13-10-13-10-13-10-----------------------
B)--------------------------------------------------------------------
G)--------------------------------------------------------------------
D)--------------------------------------------------------------------
A)--------------------------------------------------------------------
D)--------------------------------------------------------------------    x2
1st verse (distortion)
E)--------------------------------------------------------------------
B)--------------------------------------------------------------------
G)--------------------------------------------------------------------
D)---------------------------3h5--------------------------------------
A)---3--5----3--5---3--5-----3h5--------------------------------------
D)--------0-------0------0---3h5--------------------------------------    x3
chorus with wah-wah pedel
E)--------------------------------------------------------------------
B)--------------------------------------------------------------------
G)--------------------------------------------------------------------
D)--------------------------------------------------------------------
A)---------0-3--------------------------------------------------------
D)---0-3-5-----3-0----------------------------------------------------    x2
brigde (distortion)
E)--------------------------------------------------------------------
B)--------------------------------------------------------------------
G)--------------------------------------------------------------------
D)--------------------------------------------------------------------
A)--5-----------------------------------------------------------------
D)----0-0-------------------------------------------------------------    x2
2nd and 3rd verse
E)--------------------------------------------------------------------
B)--------------------------------------------------------------------
G)--------------------------------------------------------------------
D)---------------------------3h5--------------------------------------
A)---3--5----3--5----3--5----3h5--------------------------------------
D)--------0-------0-------0--3h5--------------------------------------    x2
2nd bridge
E)--------------------------------------------------------------------
B)--------------------------------------------------------------------
G)--------------------------------------------------------------------
D)-5h7----------------------------------------------------------------
A)-5h7----------------------------------------------------------------
D)-5h7----------------------------------------------------------------    x2
solo wha-wah and distortion work out yourself how many times tom morrello stricks the b-string
E)--------------------------------------------------------------------
B)00000000000000000000000000000000000000000000000000000000000000000000
G)--------------------------------------------------------------------
D)--------------------------------------------------------------------
A)--------------------------------------------------------------------
D)--------------------------------------------------------------------    x1


structure
intro
1st verse
chorus
2nd verse
bridge
3rd verse
chorus
intro
chorus
2nd bridge
solo
4th verse (same as others but played 5 times insted of 2/3 times)
outro (same as chorus but played 4 timed instead of 2)

thank you please





Comments


Popular Rage Against The Machine tabs & chords
Darkness 3 Bass Tabs
Freedom 3 Bass Tabs
Im Housin 2 Bass Tabs
Bullet In The Head Drum Tabs
The Police Drum Tabs
Bulls On Parade 2 Tabs
Darkness Tabs
Degeneration X Tabs
Killin In The Name 1 Tabs
Renegadez Of Funk Tabs


Song lyrics



↑ Back to top | Tablatures and chords are parodies/interpretations of the original songs. You may use it for private study, scholarship, research or language learning purposes only
© 2014 AZChords.com Contact us | Privacy policy | DMCA | Add/correct tabs | Request tabs | Top 50 tabs