» » »

F*** The Police Tabs (ver.1)

Artists:  A B C D E F G H I J K L M N O P Q R S T U V W X Y Z # 

F*** The Police Tabs (ver.1)

Rage Against The Machine
Rating:
0/5 (0 votes)

Hard to play? Try these video lessons and learn fast.
                tuning: standard

heavy distortion is best for this song.
note: don't whammy the second set of 12s on the first verse.

Intro & Chorus

E|--------12-11-10-9-8-7-6-|
B|--------12-11-10-9-8-7-6-|
G|-------------------------|
D|-x-5-7-------------------|
A|-x-5-7-------------------|
E|-x-3-5-------------------|

Verse

E|(12)---------------------(12)-------------------|
B|(12)---------------------(12)-------------------|
G|------------------------------------------------|
D|---5-x-x-5-x-x-5-x-x-5-7----5-x-x-5-x-x-7-7-5-7-|
A|---5-x-x-5-x-x-5-x-x-5-7----5-x-x-5-x-x-7-7-5-7-|
E|---3-x-x-3-x-x-3-x-x-3-5----3-x-x-3-x-x-5-5-3-5-|

Intro 4x
Verse 12x
Chorus 4x
Verse 14x
Chorus 4x
            
Hard to play? Try these video lessons and learn fast. | Correct




comments powered by Disqus
↑ Back to top | Tablatures and chords are parodies/interpretations of the original songs. You may use it for private study, scholarship, research or language learning purposes only