» » »

Rage Against The Machine, F*** The Police Tabs (ver.3)

Artists:  A B C D E F G H I J K L M N O P Q R S T U V W X Y Z # 

F*** The Police Tabs (ver.3)

Rage Against The Machine Tabs
 Rating:
4/5 (4 votes)
F*** The Police lessons Tabs too difficult? Try these video lessons and learn fast
1
                *** tha Police

intro/chorus
(whammy set up 2 octaves)
(dont hit the G5 and A5 with whammy except for the very first time [tom prolly just 
made that mistake])

e----------------------------------------
b----------------------------------------
g-----------9---8---7---6---5---4---3----
d---5--7----9---8---7---6---5---4---3----
a---5--7----7---6---5---4---3---2---1----
E---3--5---------------------------------

verse:
e-------------------------------------------
b-*-----------------------------------------
g-9-----------------------------------------
d----7-x7-x7-x7-x5--7---7-x7-x7-9--7--5--7--
a-7-----------------------------------------
E-*--5-x5-x5-x5-x3--5---5-x5-x5-7--5--3--5--

*=supress whammy
            
Submit corrections

comments powered by Disqus
↑ Back to top | Rage Against The Machine Tabs for F*** The Police. Lyrics for acoustic guitar and electric guitar. 1 Tablatures and chords are parodies/interpretations of the original songs. You may use it for private study, scholarship, research or language learning purposes only