» » »

Rage Against The Machine, F*** The Police Tabs (ver.2)

Artists:  A B C D E F G H I J K L M N O P Q R S T U V W X Y Z # 

F*** The Police Tabs (ver.2)

Rage Against The Machine Tabs
Rating:
0/5 (0 votes)
Hard to play? Try these video lessons and learn fast.
                **************************************************************************
* Written by: NWA                                                        * 
* Performed live by:Rage against the machine                             * 
**************************************************************************


 this is the intro u need an FX pedal though
E|-----------------------------------------------------------------------|
B|-------17-16-15-14-13-12-11--------------------------------------------|
G|-----------------------------------------------------------------------|
D|-----------------------------------------------------------------------|
A|-----------------------------------------------------------------------|
E|-0-2-------------------------------------------------------------------|


Verses
E|-----------------------------------------------------------------------|
B|-----------------------------------------------------------------------|
G|----5-x-5-x-5-5-x-5-5-x-5-5-x-7---7-x-7-7-x-7-x-7-7-x-5-x-7------------|
D|----5-x-5-x-5-5-x-5-5-x-5-5-x-7---7-x-7-7-x-7-x-7-7-x-5-x-7------------|
A|-----------------------------------------------------------------------|
E|-----------------------------------------------------------------------|
            

comments powered by Disqus
↑ Back to top | Rage Against The Machine Tabs for F*** The Police. Lyrics for acoustic guitar and electric guitar. Tablatures and chords are parodies/interpretations of the original songs. You may use it for private study, scholarship, research or language learning purposes only