>
 >
Fistfull Of Steel 2

Fistfull Of Steel 2 Guitar Tabs

Rage Against The Machine - Fistfull Of Steel 2 chords, tabs, tablatures, lyrics

Guitar lessons | Add/correct | Request | Top 50 tabs Artists:  A B C D E F G H I J K L M N O P Q R S T U V W X Y Z 0-9

Fistfull Of Steel 2 Guitar Tabs – Rage Against The Machine

CD, Sheet music, Poster

Do you like Fistfull Of Steel 2? Share with your friends now
Bass TabsBass Tabs v2TabsTabs v2Tabs v3
Key:*=harmonic
P.M=Palm Mute
x=muted string
h=hammer on
\=slide
b^=bend up

Intro:
There are several endigs and variations that can be played in the intro they are seperated by a space.

No matter which intro you chose they are all played 6 times.
MOST CORRECT:
E-----------------main riff--------------------------------------------------------
B-----------------  ------ ---------------  -----------------------------------12*-
G-----------------  -0-12*--- ------------  -0-12*-----------------------------12*-
D--4-4--x-x-x-4-4-  -0-12*-- -4-4-x-x-x-4-4 -0-12*-12*-------main riff then:------
A--4-4--x-x-x-4-4-  ----- -4-4-x-x-x-4-4-   -------12*--------------------let ring-
E--0h2--x-x-x-0h2-  ----- -0h2-x-x-x-0h2-   ---------------------------------------

the other ways:
E--------------- -------- ---------------- ---------------------------------
B--------------- -------- ---------------- ---------------------------------
G--------------- ----5*-- ---------------- ---5*----------------------------
D-4-4-x-x-x-4-4- -------- --4-4-x-x-x-4-4- ----------------main riff then-5-
A-4-x-x-x-4-4-   -5*----- --4-4-x-x-x-4-4  -5*----------------------------5-
E-0h2-x-x-x-0h2- -------- --0h2-x-x-x-0h2- --------3*---------------------3-


E----------------------- --------------------------------------------------
B----------------------- --------------------------------------------------
G-------------------19-- --------------------19--17-------------------19*--
D-4-4-x-x-x-4-4--19-19-- -4-4-x-x-x-4-4--19--19--17--main riff then---19*--
A-4-4-x-x-x-4-4--19-17-- -4-4-x-x-x-4-4--19--17--17------------------------
E-0h2-x-x-x-0h2--17-17-- -0h2-x-x-x-0h2--17--17--15------------------------

Intro:Bass
G------------------
D------------------
A------------------
E--0h2--2----------

VERSE:Guitar. Slow Slide with whammy pedal.
E--14\10---------------
B----------------------
G----------------------
D----------------------
A----------------------
E----------------------

VERSE:Bass 
----------------------
--------4-------------
----------------------
-7\2--2--2---5-7-8----

PRE CHORUS GUITAR
E---14let ring------------------
B-------------------------------
G-------------------------------
D----------------11-10-9--6-5-4-
A----------------11-10-9--6-5-4-
E-----------------9--8-7--4-3-2-

PRE CHORUS BASS:
G---------------
D--4--2---------
A-------4--3-2-0
E---------------

Thanks to midget for this bit and the solo
E-0-------0--------0--------0--------0--------0--------0--------0--------------
B---5-7-9----3-4-5----2-3-4----2-3-4----2-3-4----2-3-4----2-3-4----2-3-4-------
G--0-------0--------0--------0--------0--------0--------0--------0-------------
D------------------------------------------------------------------------------
A------------------------------------------------------------------------------
E------------------------------------------------------------------------------


Interlude:Guitar
E-------------------------------
B-------------------------------
G-------------------------------
D--4-3-2-4-3-2-4-3-2-etc.-------
A-------------------------------
E-------------------------------
P.M- - - - - - - - - - - -

Interlude 2nd part:Guitar and Bass Play This:
E--------------------------------
B--------------------------------
G--------------------------------
D------------4-3-2-4-3-2---------
A----------0---------------------
E-0--2--2------------------------

Solo:Thanks to MIDGET
E-17-17-17----18-18-18-------17-17-17--------------17-------17-----------------
B----------17----------17--------------17-19-19-19----17-17----17-19-----------
G-------------------------18---------------------------------------------------
D------------------------------------------------------------------------------
A------------------------------------------------------------------------------
E------------------------------------------------------------------------------
 
E-19-19-19-7-19-19-19-17----21-19-19-17----17----17-17b19\\0---17---17---17----
B---------------------------------------18----18-------------------------------
G------------------------------------------------------------------------------
D------------------------------------------------------------------------------
A------------------------------------------------------------------------------
E------------------------------------------------------------------------------
                                                                              

E-----------------17b19--------------------------------------------------------
B------------------------------------------------------------------------------
G-/14/15/16/17/17--------------------------------------------------------------
D------------------------------------------------------------------------------
A------------------------------------------------------------------------------
E------------------------------------------------------------------------------

Ending:
E----------------
B----------------
G--3b^------------
D--4b^------------
A----------------
E----------------
 
Lyrics:
Huh!
Check it...uggh!
Silence
Something about silence makes me sick
'Cause silence can be violent
Sorta like a slit wrist

If the vibe was suicide
Then you would push da button
But if ya bowin' down
Then let me do the cuttin'

Some speak the sounds
But speak in silent voices
Like radio is silent
Though it fills the air with noises
Its transmissions bring submission
As ya mold to the unreal
And mad boy grips the microphone
Wit' a fistful of steel
Yeah...and mad mad boy grips the microphone
Wit' a fistful of steel


Wit' a fistful of steel
('Cause I know the power of the question)
Wit' a fistful of steel
Wit' a fistful of steel
(And I won't stop 'cause I know the power of the question)


It's time to flow like the fluid in ya veins
If ya will it, I will spill it
And ya out just as quick as ya came
Not a silent one
But a defiant one
Never a normal one
'Cause I'm the bastard son
With the visions of the move
Vocals not to soothe
But to ignite and put in flight
My sense of militance
Groovin', playin' this game called survival
The status, the elite, the enemy, the rival
The silent sheep slippin', riffin', trippin'
Give ya a glimpse of the reality I'm grippin'
Steppin' into the jam and I'm slammin' like Shaquille
Mad boy grips the microphone
Wit' a fistful of steel
Yeah...and mad boy grips the microphone
Wit' a fistful of steel


Wit' a fistful of steel
('Cause I know the power of the question)
Wit' a fistful of steel
Wit' a fistful of steel
(And I won't stop 'cause I know the power of the question)


Ahh ***

And I won't stop 'cause I know the power of the question

And if the vibe was suicide
Then you would push da button
But if ya bowin' down
Then let me do the cuttin`

Yeah!
Come on!

A .44 full of bullets
Face full of pale
Eyes full of empty
A stare full of nails
The roulette ball rolls alone on the wheel
A mind full of fire
And a fistful of steel

And if the vibe was suicide
Then you would push da button
But if ya bowin' down
Then let me do the cuttin'

Yeah! Wit' a fistful of steel!
Come on!
Uggh!
Wit' a fistful of steel!
Uggh!





Comments


Popular Rage Against The Machine tabs & chords
*** Tha Police 1 Bass Tabs
Autologic 1 Bass Tabs
Bombtrack 3 Bass Tabs
Ghost Of Tom Joad Bass Tabs
Kick Out The Jams 5 Bass Tabs
Killing In The Name Bass Tabs
No Shelter 3 Bass Tabs
How I Could Just Kill A Man Chords
Born Of A Broken Man 5 Tabs
Darkness 1 Tabs


Song lyrics



↑ Back to top | Tablatures and chords are parodies/interpretations of the original songs. You may use it for private study, scholarship, research or language learning purposes only
© 2014 AZChords.com Contact us | Privacy policy | DMCA | Add/correct tabs | Request tabs | Top 50 tabs