» » »

Fistfull Of Steel Tabs (ver.1)

Artists:  A B C D E F G H I J K L M N O P Q R S T U V W X Y Z # 

Fistfull Of Steel Tabs (ver.1)

Rage Against The Machine
Rating:
0/5 (0 votes)

Hard to play? Try these video lessons and learn fast.
                Standard Tuning (E-A-D-G-B-E)
 
Key:
Harm - #
Vibrato Bar Scoop - >
Vibrate - ~~~

Intro: (Repeat this part several times)
                         #  #                           #   #
-----------------------0-------|----------------------0-12----|
-----------------------0-------|----------------------0-12----|
-----------------------0----5--|----------------------0-12—12-|
-----------------------0—5-----|----------------------0-12—12-|
--4----4---x-x—4---4-----------|-4----4----x-x-4---4----------|
--0h2--2---x-x-0h2-2-----------|-0h2--2----x-x—0h2-2----------|

                           #
-----------------------0---5---|----------------------0-------|
-----------------------0---5---|----------------------0-----0-|
-----------------------0---5---|------------------------x-x-0-|
-----------------------0---5---|------------------------x-x-0-|
--4----4---x-x—4---4-----------|-4----4----x-x-4---4----------|
--0h2--2---x-x—0h2-2-----------|-0h2--2-----x-x-0h2-2---------|

Before Verse
      #
--------------|
------12------|
------12------|
------12------|
--------------|
--------------|

Verse (Depress the bar just before striking the note, then release bar)
----------------------|
---------9>---\\------|
----------------------|
----------------------|
----------------------|
----------------------|

Bridge (P.M. throughout and repeat)
-------------------------------------------------|
-------------------------------------------------|
-------------------------------------------------|
-------------------------------------------------|
--9-8-7-0-9-8-7-0-9-8-7-0-9-8-7-0-9-8-7-0-9-8-7-0|
-------------------------------------------------|

After “Let me do the cutting!” (Repeat)
-----------------------------------------|
-----------------------------------------|
-----------------------------------------|
-----------------------------------------|
--------------------9-8-7-0-9-8-7--------|
--0---2---0---5~~~~----------------0-----|
            
Hard to play? Try these video lessons and learn fast. | Correct




comments powered by Disqus
↑ Back to top | Tablatures and chords are parodies/interpretations of the original songs. You may use it for private study, scholarship, research or language learning purposes only