» » »

Fistfull Of Steel Tabs (ver.2)

Artists:  A B C D E F G H I J K L M N O P Q R S T U V W X Y Z # 

Fistfull Of Steel Tabs (ver.2)

Rage Against The Machine
Rating:
0/5 (0 votes)

Hard to play? Try these video lessons and learn fast.
                For The intro play the E string Palm Muted. I have no idea what effects to use.

-------------------5--------------------5-------------------------------------
-2-4-4-x-x-2-4-4-4-5--2-4-4-x-x-2-4-4-4-5-4-----------------------------------
-2-4-4-x-x-2-4-4-4----2-4-4-x-x-2-4-4-4---4-----------------------------------
-0h2-2-x-x-0h2-2------0h2-2-x-x-0h2-2-----------------------------------------
 Play this however many times he does it in the song, too lazy to count.      

-14vvvvvvvvvvvvvvvvvv|-10-----------------------10----------------------------
---------------------|--------------------------------------------------------
---------------------|--------------------------------------------------------
---------------------|--------------------------------------------------------
---------------------|--------------------------------------------------------
---------------------|--------------------------------------------------------
  He uses a wah pedal and holds it up and puts it down. listen to the song    

-0-------0--------0--------0--------0--------0--------0--------0--------------
---5-7-9----3-4-5----2-3-4----2-3-4----2-3-4----2-3-4----2-3-4----2-3-4-------
--0-------0--------0--------0--------0--------0--------0--------0-------------
 after that play this PALM MUTE                                               

-------------2-3-4--2-3-4-------------2-3-4---2-3-4---------------------------
-----------0------0-----------------0-------0---------------------------------
-0-2---5v-----------------0-2---5v--------------------------------------------
 THen this                                                                    

-17-17-17----18-18-18-------17-17-17--------------17-------17-----------------
----------17----------17--------------17-19-19-19----17-17----17-19-----------
-------------------------18---------------------------------------------------
 Solo...............................Then..............................        

-19-19-19-7-19-19-19-17----21-19-19-17----17----17-17b19\\0---17---17---17----
---------------------------------------18----18-------------------------------
                                                                              

-----------------17b19--------------------------------------------------------
-/14/15/16/17/17--------------------------------------------------------------
    End Thing                                                                 

-3b4--------------------------------------------------------------------------
            
Hard to play? Try these video lessons and learn fast. | Correct




comments powered by Disqus
↑ Back to top | Tablatures and chords are parodies/interpretations of the original songs. You may use it for private study, scholarship, research or language learning purposes only