» » »

Radiohead, High And Dry Bass tabs (ver.2)

Artists:  A B C D E F G H I J K L M N O P Q R S T U V W X Y Z # 

High And Dry Bass tabs (ver.2)

Radiohead Tabs
 Rating:
4/5 (4 votes)
High And Dry lessons Tabs too difficult? Try these video lessons and learn fast
                [INTRO]
            F#       A        E        E        F#       A        E        E
G:----|----|--------|--------|--------|--------|--------|--------|--------|--------|
D:----|----|--------|7-------|--------|--------|--------|7-------|--------|--------|
A:----|----|9-------|--------|7~~~~~~~~~~~~~~~~|9-------|--------|7~~~~~~~~~~~~~~~~|
E:----|----|--------|--------|--------|0-------|--------|--------|--------|0-------|


[VERSE]
  F#                    A                                  E                E
  Two jumps in a week I bet you think that's pretty clever don't you boy?
  F#                           A                                   E        E 
  Flying on your motorcycle    Watching all the ground beneath you drop
        F#                                A                           E     E
  You'd kill yourself for recognition     Kill yourself to never ever stop
      F#                             A                              E       E 
  You broke another mirror    you're turning into something you are not

  F#       A        E        E        F#       A        E        E
G:--------|--------|--------|--------|--------|--------|--------|--------|
D:--------|7-------|--------|--------|--------|7-------|--------|--------|
A:9-------|--------|7-------|7-------|9-------|--------|7-------|--------|
E:--------|--------|--------|--------|--------|--------|-------7|0-------|

  F#       A        E        E        F#       A        E        E
G:--------|--------|--------|--------|--------|--------|--------|--------|
D:4------6|7----76-|--------|-------6|-------9|7----7-6|-------6~6-------|
A:--------|--------|7----7--|--------|9----9--|--------|7-------|-9-7----|
E:--------|--------|-------7|0-------|--------|--------|--------|-----9-7|

[CHORUS]
                 F#      A                  E        E
  Don't leave me high        Don't leave me dry
                 F#      A                  E        E
  Don't leave me high        Don't leave me dry

  F#       A        E        E        F#       A        E        E
G:--------|--------|--------|--------|--------|--------|--------|--------|
D:--------|--7~77--|--------|-------6|4---44--|--------|--------|---6----|
A:--------|0--7----|7-7~77--|--7~77--|--------|--------|7---77--|7----97-|
E:2-2/22-4|-------7|---7---7|0--7----|-------4|5-------|-------7|-------7|

[INSTRUMENTAL]
  F#       A        E        E        
G:--------|--------|--------|--------|
D:--------|7-------|--------|--------|
A:9-------|--------|7~~~~~~~~~~~~~~~~|
E:--------|--------|--------|0-------|

[VERSE]
F#                        A                              E                 E  
Drying up in conversation you will be the one who cannot talk
F#                              A                                               E  E
All your insides fall to pieces you just sit there wishing you could still make love
F#                                        A                                     E  E
They're the ones who'll hate you when you think you've got the world all sussed out
F#                                    A                             E      E 
They're the ones who'll spit at you   You will be the one screaming out

  F#       A        E        E        F#       A        E        E
G:--------|--------|--------|--------|--------|--------|--------|--------|
D:--------|7-------|--------|--------|--------|7-------|--------|--------|
A:9-------|--------|7~~~~~~~~~~~~~~~~|9-------|--------|7~~~~~~~~~~~~~~~~|
E:--------|--------|--------|0-------|--------|--------|--------|0-------|

  F#       A        E        E        F#       A        E        E
G:--------|--------|--------|--------|--------|--------|--------|--------|
D:-------6|7----7-6|--------|-------6|-------9|7----7-6|-------6~6-------|
A:9----9--|--------|7-------|7----7--|9----9--|--------|7-------|-9-7----|
E:--------|--------|-------7|--------|--------|--------|--------|-----9-7|

[CHORUS]
                 F#      A                  E             E
  Don't leave me high        Don't leave me dry
                 F#      A                  E             E
  Don't leave me high        Don't leave me dry
  F#     A      E      E	

  F#       A        E        E        F#       A        E        E
G:--------|--------|--------|--------|--------|--------|--------|--------|
D:--------|--7~77--|--------|-------6|--------|--7~77--|--------|--------|
A:9---99--|0--7----|--7~77--|--7~77--|9-9~99--|0--7----|--7~77--|--7~77-7|
E:---9---9|-------7|0--7---7|0--7----|---9---9|-------7|0--7---7|0--7----|

[INSTRUMENTAL]
  F#       A        E        E        F#       A        E        E
G:--------|--------|--------|--------|--------|--------|--------|--------|
D:--------|--7~77--|--------|-------6|--------|--7~77--|--2~22--|--2~22--|
A:9---99-9|0--7----|--7~77--|--7~77--|9-9~99--|0--7----|---2---2|---2---2|
E:---9----|-------7|0--7---7|0--7----|---9---9|-------7|0-------|0-------|

[VERSE]
           F#                                 A                             E      E
  It's the best thing that you ever had   The best thing that you ever ever had
           F#                                 A                                 E  E
  It's the best thing that you ever had   The best thing that you had has gone away

  F#       A        E        E        F#       A        E        E
G:--------|--------|--------|--------|--------|--------|--------|--------|
D:--------|--------|--------|--------|--------|7-------|--------|--------|
A:--------|--------|7~~~~~~~~~~~~~~~~|9-------|--------|7-------|---77777|
E:2-----/4|5-------|--------|--------|--------|--------|--------|--------|

[CODA]
                 F#      A                  E             E
  Don't leave me high        Don't leave me dry
                 F#      A                  E             E
  Don't leave me high        Don't leave me dry
                 F#      A                  E             E
  Don't leave me high        
                 F#      A                  E             E
  Don't leave me high        Don't leave me dry

  F#       A        E        E        F#       A        E        E
G:--------|--------|--------|--------|--------|--------|--------|--------|
D:--------|--7~77--|--------|-------6|--------|--7~77--|--------|--------|
A:9---99--|0--7----|--7~77--|--7~77--|9-9~99--|0--7----|--7~77--|--7~77-7|
E:---9---9|-------7|0--7---7|0--7----|---9---9|-------7|0--7---7|0--7----|

  F#       A        E        E        F#       A        E        E
G:--------|--------|--------|--------|--------|--------|--------|--------|
D:--------|----77--|--------|-------6|-------6|7~~~~~~~|--------|--------|
A:9---99--|0--7----|--7~77--|--7~77--|9-9~99--|--------|7~~~~~~~~~~~~~~~~|
E:---9---9|-------7|0--7---7|0--7----|---9----|--------|--------|--------|

January 31, 2012
            
Submit corrections

comments powered by Disqus
↑ Back to top | Radiohead Bass for High And Dry. Lyrics for acoustic guitar and electric guitar. Tablatures and chords are parodies/interpretations of the original songs. You may use it for private study, scholarship, research or language learning purposes only