» » »

Radiohead, High And Dry Chords (ver.2)

Artists:  A B C D E F G H I J K L M N O P Q R S T U V W X Y Z # 

High And Dry Chords (ver.2)

Radiohead Tabs
 Rating:
4/5 (4 votes)
High And Dry lessons Tabs too difficult? Try these video lessons and learn fast
1
                Autor: Radiohead
Canción: High and Dry


         
Intro

e --4--4--4--4\2--2--2--2--2----4--4--4--4\0--0--0--0--0----0
B --0--0--0--0\0--0--0--0--0----0--0--0--0\0--0--0--0--0----0
G --6--6--6--6\4--4--4--4--4----6--6--6--6\2--2--2--2--2----1
D --6--6--6--6\4--4--4--4--4----6--6--6--6\2--2--2--2--2----2
A --x--x--x--x\x--X--X--X--X----x--x--x--x\0--0--0--0--0----2
E --x--x--x--x\x--X--X--X--X----x--x--x--x\x--x--x--x--x----0

e --4--4--4--4\2--2--2--2--2----4--4--4--4\0--0--0--0--0----0
B --0--0--0--0\0--0--0--0--0----0--0--0--0\0--0--0--0--0----0
G --6--6--6--6\4--4--4--4--4----6--6--6--6\2--2--2--2--2----1
D --6--6--6--6\4--4--4--4--4----6--6--6--6\2--2--2--2--2----2
A --x--x--x--x\x--X--X--X--X----x--x--x--x\0--0--0--0--0----2
E --x--x--x--x\x--X--X--X--X----x--x--x--x\x--x--x--x--x----0

\ =     Deslizar pabajo


Verso 1

F#                            A                                  E
Two jumps in a week I bet you think thats pretty clever don't you boy?

F#                         A                              E      Esus4    E
Flying on your motorcycle, watching the ground beneath you drop.

F#                                   A                          E
You'd kill yourself for recognition, kill yourself to never ever stop

F#                               A                         E      Esus4    E
You broke another mirror, you're turning into something you are not


Coro

                 F#   
  Don't leave me high 

A                 E      Esus4    E
  Don't leave me dry

                 F#
  Don't leave me high

A                 E
  Don't leave me dry



e --4--4--4--4\2--2--2--2--2----4--4--4--4\0--0--0--0--0----0
B --0--0--0--0\0--0--0--0--0----0--0--0--0\0--0--0--0--0----0
G --6--6--6--6\4--4--4--4--4----6--6--6--6\2--2--2--2--2----1
D --6--6--6--6\4--4--4--4--4----6--6--6--6\2--2--2--2--2----2
A --x--x--x--x\x--X--X--X--X----x--x--x--x\0--0--0--0--0----2
E --x--x--x--x\x--X--X--X--X----x--x--x--x\x--x--x--x--x----0


*Para toda la canción es igual (F#, A, E)

*Whole song its the same pattern (F#, A, E)


...



   F# A  E Esus4
e--0--0--0--0-
B--0--2--0--0-
G--3--2--1--2-
D--4--2--2--2-
A--4--0--2--2-
E--2--x--0--0-


Cheers
            
Submit corrections

comments powered by Disqus
↑ Back to top | Radiohead Chords for High And Dry. Lyrics for acoustic guitar and electric guitar. 1 Tablatures and chords are parodies/interpretations of the original songs. You may use it for private study, scholarship, research or language learning purposes only