» » »

Radiohead, No Surprises Tabs (ver.1)

Artists:  A B C D E F G H I J K L M N O P Q R S T U V W X Y Z # 

No Surprises Tabs (ver.1)

Radiohead Tabs
 Rating:
4/5 (4 votes)
No Surprises lessons Tabs too difficult? Try these video lessons and learn fast
                RADIOHEAD - No surprises

Well... I'm not an expert with the guitar. So if you have any question,

CHoRD DiCTioNaRy:

       EBGDAE
Bbm    113321
C      332010
Eb     665343
F      133211
Gm     355333

INTRO

E -5------------5------------5-----------------1--3-
B -------6------------6------------6--------2-------
G ----5-----5------5-----5------5-----5--3----------
D --------------------------------------------------
A --------------------------------------------------
E --------------------------------------------------
          [ repeat this riff 2 times ]

   F                                     Bbm
E -5------------5------------5-----------------1--3-
B -------6------------6------------6--------2-------
G ----5-----5------5-----5------5-----5--3----------
D --------------------------------------------------
A --------------------------------------------------
E --------------------------------------------------
          [ repeat this riff 2 times ]

   F
E -5------------5------------5------------5----------
B -------6------------6------------6------------6----
G ----5-----5------5-----5------5-----5------5-----5-
D ---------------------------------------------------
A ---------------------------------------------------
E ---------------------------------------------------
   A  heart  ..   thats  ..  full ... up ... like    a
  *   You  ...  look  ..  so tired n'  ....  happy

   Eb
E -5-----------5-----------5-----------5-----------
B -------6-----------6-----------6-----------6-----
G ----7-----7-----7-----7-----7-----7-----7-----7--
D -------------------------------------------------
A -------------------------------------------------
E -------------------------------------------------
   landfill,   ..............    a job that slowly
   bring down   ............  the government,

  Gm                       C
E -6-----------6---------------------------------
B -------6-----------6-----6--5------------------
G ----7-----7-----7-----7--------5-------------5-
D ----------------------------------7---6-7--6---
A -----------------------------------------------
E -----------------------------------------------
    kills  ..  you,  ...   bruises that wont  heal.
  they  ....   don't  .....  they don't speak for

   F                                     Bbm
E -5------------5------------5-----------------1--3-
B -------6------------6------------6--------2-------
G ----5-----5------5-----5------5-----5--3----------
D --------------------------------------------------
A --------------------------------------------------
E --------------------------------------------------
  heal. ....                                   .... [ REPEAT from * ]
   us. ....                                    .... [ Go to next riff ]

   F
E -5------------5------------5------------5----------
B -------6------------6------------6------------6----
G ----5-----5------5-----5------5-----5------5-----5-
D ---------------------------------------------------
A ---------------------------------------------------
E ---------------------------------------------------
   I'll  .....  take  .....  a quiet  ..  life, ..  a
 **This          is          my final  fit. -------- [ DON'T PLAY CHORDS ]

   Eb
E -5-----------5-----------5-----------5-----------
B -------6-----------6-----------6-----------6-----
G ----7-----7-----7-----7-----7-----7-----7-----7--
D -------------------------------------------------
A -------------------------------------------------
E -------------------------------------------------
     handshake   ........  of carbon monoxide
   my final                bellyache,   with ----- [ DON'T PLAY CHORDS ]

  Gm                     C
E -----------------------------------------
B --3--1--1---------------------------3--1-
G -----------3--3--2--0------------3-------
D -------------------------0--0------------
A -----------------------------------------
E -----------------------------------------
    And no alarms ...... and no surprises
    no alarms ...... and no surprises

  Gm                     C
E ---------------------------------1--0-
B --3--1--1-----------------------------
G -----------3--3--2--0-----------------
D -------------------------0--0---------
A --------------------------------------
E --------------------------------------
       no alarms ...... and no surprises
       no alarms ...... and no surprises

  Gm                     C
E -----------------------------------------
B --3--1--1---------------------------3--1-
G -----------3--3--2--0------------3-------
D -------------------------0--0------------
A -----------------------------------------
E -----------------------------------------
       no alarms ...... and no surprises
       no alarms ...... and no surprises,

  F
E -5------------5------------5-----------------1--3-
B -------6------------6------------6--------2-------
G ----5-----5------5-----5------5-----5--3----------
D --------------------------------------------------
A --------------------------------------------------
E --------------------------------------------------
   Silent.       ..[ Don't play chords now, REPEAT one more time and back to **]
   please.       ..[ REPEAT one more time and go to next riff ]


   C                                Bbm
E ---------------------------------------------6--5---3-------------
B ------5-------5-6-5--------------------3----------------6---------
G ----5-----5----------5------5--------3----3-----------------------
D --5---------------------5----------3------------------------------
A ------------------------------------------------------------------
E ------------------------------------------------------------------
                                [[ Play this riff twice ]]

   Gm
E ---3-------------------------------------------------
B ----3-----------------8------------------6-----5-6-8-
G -----3----------7--------7---------5--7-----7--------
D ------5------5-----5--------5-7-8--------------------
A -------5---------------------------------------------
E --------3--------------------------------------------

  F
E -5------------5------------5------------5----------
B -------6------------6------------6------------6----
G ----5-----5------5-----5------5-----5------5-----5-
D ---------------------------------------------------
A ---------------------------------------------------
E ---------------------------------------------------
   Such  .....  a  ........  pretty  ... house

  Eb
E -5-----------5-----------5-----------5-----------
B -------6-----------6-----------6-----------6-----
G ----7-----7-----7-----7-----7-----7-----7-----7--
D -------------------------------------------------
A -------------------------------------------------
E -------------------------------------------------
   such  ....  a   .....   pretty  .. garden

  Gm                     C
E -----------------------------------------
B --3--1--1---------------------------3--1-
G -----------3--3--2--0------------3-------
D -------------------------0--0------------
A -----------------------------------------
E -----------------------------------------
    no alarms ...... and no surprises  (let me out of here)

  Gm                     C
E ---------------------------------1--0-
B --3--1--1-----------------------------
G -----------3--3--2--0-----------------
D -------------------------0--0---------
A --------------------------------------
E --------------------------------------
      no alarms ...... and no surprises  (let me out of here)

  Gm                     C
E -----------------------------------------
B --3--1--1---------------------------3--1-
G -----------3--3--2--0------------3-------
D -------------------------0--0------------
A -----------------------------------------
E -----------------------------------------
      no alarms ...... and no surprises  (let me out of here)

  (stop the chords)
E -5------------5------------5-----------------1--3-
B -------6------------6------------6--------2-------
G ----5-----5------5-----5------5-----5--3----------
D --------------------------------------------------
A --------------------------------------------------
E --------------------------------------------------
   please.

E -5------------5------------5-----------------1--3----5
B -------6------------6------------6--------2---------6-
G ----5-----5------5-----5------5-----5--3-----------5--
D ------------------------------------------------------
A ------------------------------------------------------
E ------------------------------------------------------

That's all..
            
Submit corrections

comments powered by Disqus
↑ Back to top | Radiohead Tabs for No Surprises. Lyrics for acoustic guitar and electric guitar. Tablatures and chords are parodies/interpretations of the original songs. You may use it for private study, scholarship, research or language learning purposes only