» » »

Radiohead, High And Dry Tabs (ver.2)

Artists:  A B C D E F G H I J K L M N O P Q R S T U V W X Y Z # 

High And Dry Tabs (ver.2)

Radiohead Tabs
 Rating:
4/5 (4 votes)
High And Dry lessons Tabs too difficult? Try these video lessons and learn fast
1
                Tuning: Standerd

Intro:
e|--4-4-4-4-/-2-2-2-2-2-2--4-4-4-4-/-0-0-0-0-0-0--
B|--0-0-0-0-/-0-0-0-0-0-0--0-0-0-0-/-0-0-0-0-0-0--
G|--6-6-6-6-/-4-4-4-4-4-4--6-6-6-6-/-2-2-2-2-2-2--
D|--6-6-6-6-/-4-4-4-4-4-4--6-6-6-6-/-2-2-2-2-2-2--
A|------------------------------------------------
E|------------------------------------------------

   E
e|---0-0-0-0-0-0-0-0-0-0-0-
B|---0-0-0-0-0-0-0-0-0-0-0-
G|---1-1-1-2-2-2-1-1-1-1-1-
D|---2-2-2-2-2-2-2-2-2-2-2-
A|---2-2-2-2-2-2-2-2-2-2-2-
E|-0-----------------------

Verse/Chorus:
    F#m                 A
e|-------------------------------------
B|-------------------------------------
G|--2-2-2-2-2-2-2-2----6-6-6-6-6-6-6-6-
D|--4-4-4-4-4-4-4-4----7-7-7-7-7-7-7-7-
A|--4-4-4-4-4-4-4-4----7-7-7-7-7-7-7-7-
E|--2-2-2-2-2-2-2-2----5-5-5-5-5-5-5-5-

    E
e|---0-0-0-0-0-0-0-0-0-0-0-
B|---0-0-0-0-0-0-0-0-0-0-0-
G|---1-1-1-2-2-2-1-1-1-1-1-
D|---2-2-2-2-2-2-2-2-2-2-2-
A|---2-2-2-2-2-2-2-2-2-2-2-
E|-0-----------------------

Solo:
e|-------------------------------------------------
B|-------------------------------------------------
G|-9-9-8-9-9-8-9-9-8-9-9/11-9-8-9-9-8-9-9-6-4--4-6-
D|-------------------------------------------------
A|-------------------------------------------------
E|-------------------------------------------------

Ending Solo:
e|----------------------------------------------
B|-10-10-9-10-7-5--10-10-9-10-7-5---9-9-8-9-9-9-
G|----------------------------------------------
D|----------------------------------------------
A|----------------------------------------------
E|----------------------------------------------

e|---------------------------------------0-|
B|-7-5-5-7-5-5-7---10-10-9-10-10-7--5/7--0-|
G|---------------------------------------1-|
D|---------------------------------------2-|
A|---------------------------------------2-|
E|---------------------------------------0-|
            
Submit corrections

comments powered by Disqus
↑ Back to top | Radiohead Tabs for High And Dry. Lyrics for acoustic guitar and electric guitar. 1 Tablatures and chords are parodies/interpretations of the original songs. You may use it for private study, scholarship, research or language learning purposes only