» » »

High And Dry Bass tabs (ver.1)

Artists:  A B C D E F G H I J K L M N O P Q R S T U V W X Y Z # 

High And Dry Bass tabs (ver.1)

Radiohead
Rating:
0/5 (0 votes)
Tabs too difficult? Try these video lessons and learn fast.
                
G|-------------------------------------------------------------------------------|
D|-------------------------------------------------------------------------------|
A|9-12-7----9-12-7----9-12-7-7--9-12-7-7-----------------------------------------|
E|-------0--------0---------------------7-0--------------------------------------|

G|-------------------------------------------------------------------------------|
D|------------------------------------9------------------------------------------|
A|9-9-11-12--12-11-7--7----7--11-9-9----12-12-11-7--\11-9-7-6--------------------|
E|-----------------------7------------------------------------7------------------|

Chorus
G|-------------------------------------------------------------------------------|
D|-------------------------------------------------------------------------------|
A|-------------------------------------------------------------------------------|
E|2-2-2-22-2-2-2-5-5-5-55-5-5-5-0-0-0-00-0-0-0-00-0-0-0-0-0-0-2-2-2-22-2-2-2-5r--|



G|-------------------------------------------------------------------------------|
D|-------------------------------------------------------------------------------|
A|7-777-7-\11-9-7-6----9--12-7----9--12-7----9--12-7-----------------------------|
E|------------------7----------0----------0----------0---------------------------|


G|-------------------------------------------------------------------------------|
D|------------------------------------9------------------------------------------|
A|9-9-11-12--12-11-7--7----7--11-9-9----12-12-11-7--\11-9-7-6--------------------|
E|-----------------------7------------------------------------7------------------|


Riff/Chorus
G|-------------------------------------------------------------------------------|
D|-------------------------------------------------------------------------------|
A|-------------------------------------------------------------------------------|
E|2-22-2-22-2-2-2-5-5-55-5-55-5-5-5-0-00-0-0-0-00-0-0-00-0-0-0-00-0-00-0-0-------|x4


G|-------------------------------------------------------------------------------|
D|-------------------------------------------------------------------------------|
A|9-12-7--9-12-7-----------------------------------------------------------------|
E|-------------------------------------------------------------------------------|


G|-------------------------------------------------------------------------------|
D|-------------------------------------------------------------------------------|
A|-------------------------------------------------------------------------------|
E|2-22-2-22-2-2-2-5-5-55-5-55-5-5-5-0-00-0-0-0-00-0-0-00-0-0-0-00-0-00-0-0-------|x3

G|-------------------------------------------------------------------------------|
D|-------------------------------------------------------------------------------|
A|-------------------------------------------------------------------------------|
E|2-22-2-22-2-2-2-5r-0r----------------------------------------------------------|
            
Tabs too difficult? Try these video lessons and learn fast.


comments powered by Disqus
↑ Back to top | Tablatures and chords are parodies/interpretations of the original songs. You may use it for private study, scholarship, research or language learning purposes only