>
 >
Faust Arp 2

Faust Arp 2 Chords

Radiohead - Faust Arp 2 chords, tabs, tablatures, lyrics

Guitar lessons | Add/correct | Request | Top 50 tabs Artists:  A B C D E F G H I J K L M N O P Q R S T U V W X Y Z 0-9

Faust Arp 2 Chords – Radiohead

CD, Sheet music, Poster

Do you like Faust Arp 2? Share with your friends now
ChordsChords v2Chords v3TabsTabs v2Tabs v3Ukulele
"Faust Arp" by Radiohead

Track 6 on the first disc of In Rainbows



Bm
Wakey wakey
Bm
Rise and shine
     Bm        Bm/A     Bm/G
It's on again off again on again
B
Watch me fall
B
Like dominoes
B
In pretty patterns

Bm
Fingers in
     Bm
the blackbird pie
     Bm      Bm/A   Bm/G
I'm tingling tingling tingling
B
It's what you feel not
B                          B
What you ought to what you ought to
C                      C
Reasonable and sensible
G#
Dead from the neck up
C#maj7/G#
            I guess I'm

G         G/F      G/Eb
stuffed, stuffed, stuffed
      G/D
We thought you had it in you
      G G/F G/Eb
But nah nah nah
    G/D
For no real reason

Bm                    Bm
Squeeze the tubes and empty bottles
  Bm         Bm/A       Bm/G
I take a bow take a bow take a bow
     B
It's what you feel not
B                 B
What you ought to what you ought to
Bm                Bm
The elephant it's in the room is
Bm       Bm/A     Bm/G
Tumbling tumbling tumbling
   B             B    
In duplicate and triplicate in
B
Plastic bags and
C             C
Duplicate and triplicate
G#
Dead from the neck up
C#maj7/G#
           I guess I'm


G         G/F      G/Eb
stuffed, stuffed, stuffed
      G/D
We thought you had it in you
      G G/F G/Eb
But nah nah nah
   G/D                     G
Exactly where do you get off
       G/F        G/Eb
    Is enough is enough
G/D                      G       G/F             G/Eb
I love you but enough is enough, enough of that stuff
        G/D
There's no real reason

Gm | Gm7 | Am7 A7sus4 Am7 | Am7 Am7/G Am7| G | G | G | G
   
             Gm Gm7       Am7 A7sus4 Am7 | Am7 Am7/G Am7        G
You've got a head          full                              of feathers
              Gm Gm7       Am7 A7sus4 Am7 | Am7 Am7/G Am7       G
You're gonna melt          in                                to butter

G/F | G/Eb | G/D | G | G/F | G/Eb | G/D

   Bm   Bm/A  Bm/G    B     C     G#  C#maj7/G# G    G/F  G/Eb    G/D     Gm      

e|--2-----2-----2-----2-----3-----4------4------3-----3-----3-----3----------|
B|--3-----3-----3-----4-----5-----4------6------0-----0-----0-----0-----3----|
G|--4-----4-----4-----4-----5-----5------5------0-----0-----0-----0-----0----|
D|--4-----4-----4-----4-----5-----6------6------0-----3-----1-----0----------|
A|--2-----0----(2)----2-----3-----6------4------2-----------------------1----|
E|--------------3-----------------4-------------3----------------------------|



   Gm7   Am7   A7sus4 Am7/G

e|--1-----0-----0-----3------------------------------------------------------|
B|--3-----1-----3-----1------------------------------------------------------|
G|--0-----0-----0-----0------------------------------------------------------|
D|--------2-----2-----2------------------------------------------------------|
A|--1-----0-----0-----0------------------------------------------------------|
E|---------------------------------------------------------------------------|





Comments


Popular Radiohead tabs & chords
Bones Bass Tabs
Paranoid Android 3 Bass Tabs
Egyptian Song Chords
The Gloaming Chords
Down Is The New Up Tabs
I Will Tabs
Jigsaw Falling Into Place Tabs
Myxomatosis Tabs
Pearly Tabs
Unklerabit In Your Headlights Tabs


Song lyrics



↑ Back to top | Tablatures and chords are parodies/interpretations of the original songs. You may use it for private study, scholarship, research or language learning purposes only
© 2014 AZChords.com Contact us | Privacy policy | DMCA | Add/correct tabs | Request tabs | Top 50 tabs