>
 >
Faust Arp

Faust Arp Guitar Tabs

Radiohead - Faust Arp chords, tabs, tablatures, lyrics

Guitar lessons | Add/correct | Request | Top 50 tabs Artists:  A B C D E F G H I J K L M N O P Q R S T U V W X Y Z 0-9

Faust Arp Guitar Tabs – Radiohead

CD, Sheet music, Poster

Do you like Faust Arp? Share with your friends now
ChordsChords v2Chords v3TabsTabs v2Tabs v3Ukulele

Note: This is my first tab ever, so be gentle.  These are the general picking patterns 
chord formations, the song is picked with a loose style in the actual recording though, 
some slight variations occur, but this is how I play it, and it sounds damn close.  Enjoy.

PART A
e|--------------------------------------------------------------------------|
B|3-------3-------3-------3-------3-----3-----3-----4-------4-------4-------|
G|-----4-------4-------4-------4----4-----4-----4-------4-------4-------4--|
D|---4-------4-------4-------4-------------------------4-------4-------4----|
A|2-2-2-2-2-2-2-2-2-2-2-2-2-2-2-2-2-2-2-0-0-0-------------------------------|
E|--------------------------------------------3-3-3-2-2-2-2-2-2-2-2-2-2-2-2-|

PART B
e|----------------------------------------------------------|
B|3-------3-------3-----3-----3-----4-------4-------4-------|
G|-----4-------4-----4-----4----4-------4-------4-------4--|
D|---4-------4-------------------------4-------4-------4----|
A|2-2-2-2-2-2-2-2-2-2-2-0-0-0-------------------------------|
E|----------------------------3-3-3-2-2-2-2-2-2-2-2-2-2-2-2-|

PART C
e|0-------0-----------------------|
B|-----1-------14--------6-------|
G|---3-------3---------5-------6--|
D|-------------------6-------6----|
A|1-1-1-1-1-1-1-1---------4-4-4-4-|
E|----------------4-4-4-4---------|

PART D
e|3----------3-------3-------3----3----------3-------3-------3----|
B|-----0-------0-------0-------0-----0---------0-------0-------0--|
G|---0---------------------------------0--------------------------|
D|--------3-------1-------0---------------3-------1-------0-------|
A|----------------------------------------------------------------|
E|3-3-3-3-3-3-3-3-3-3-3-3-3-3-3-3-3-3-3-3-3-3-3-3-3-3-3-3-3-3-3-3-|

PART E
e|--------1---------------3-----------------------3-------3-------|
B|3---------------1---------------1-------0-----------------------|
G|-----3-------3-------2-------2-------0-------0-------0----------|
D|---3-------3-------2-------2-------0-------0-------0-------0----|
A|1-1-1-1-1-1-1-1-0-0-0-0-0-0-0-0-------------------------------0-|
E|--------------------------------3-3-3-3-3-3-3-3-3-3-3-3-3-3-3---|

PART F
e|--------1---------------3-------|
B|3---------------1---------------|
G|-----3-------3-------2-------2--|
D|---3-------3-------2-------2----|
A|1-1-1-1-1-1-1-1-0-0-0-0-0-0-0-0-|
E|--------------------------------|


ORDER:
[PART A]
[PART B]
[PART C]
[PART D]

[PART B]X2
[PART C]
[PART D]X2
[PART E]
[PART F]
[PART D]





Comments


Popular Radiohead tabs & chords
Bangers N Mash Bass Tabs
Optimistic 2 Bass Tabs
Prove Yourself Chords
Airbag Drum Tabs
All I Need Tabs
Arpeggi 1 Tabs
Blow Out 1 Tabs
Harry Patch In Memory Of Intro Tabs
Molasses Tabs
Optimistic 1 Tabs


Song lyrics



↑ Back to top | Tablatures and chords are parodies/interpretations of the original songs. You may use it for private study, scholarship, research or language learning purposes only
© 2014 AZChords.com Contact us | Privacy policy | DMCA | Add/correct tabs | Request tabs | Top 50 tabs