» » »

Radiohead, Faust Arp Tabs (ver.2)

Artists:  A B C D E F G H I J K L M N O P Q R S T U V W X Y Z # 

Faust Arp Tabs (ver.2)

Radiohead Tabs
 Rating:
4/5 (4 votes)
Faust Arp lessons Tabs too difficult? Try these video lessons and learn fast
1
                Thanks to Dave Chamerette, who helped me tab this.

At // \\ repeat the bracketed section once, or more if stated. Otherwise   
   || ||                              play each bar as stated (e.g. x4).
   || ||
   || ||
   \\ //

 Bm         x4   B      x3   Bm    x4   B   x3     C7/B   
                                             //            \\
e------------|-----------|----------|--------||------------||
B--3---------|---4-------|--3-------|--4-----||----5-------||
G-------4----|--------4--|------4---|------4-||---------5--||
D-----4------|------4----|----4-----|----4---||-------5----||
A------------|-----------|----------|--------||------------||
E------------|-----------|----------|--------||----6-------||
                                             \\            //

Ab             Db           G7
                        //                                        \\
------------|-----------||---3------|---------|---------|---------||
--4---------|---6-------||---0----0-|-------0-|-------0-|-------0-||
-------5----|--------6--||---0--0---|-----0---|-----0---|-----0---||
-----6------|------6----||----------|---3-----|---1-----|---0-----||
------------|-----------||----------|---------|---------|---------||
--4---------|---4-------||----------|---------|---------|---------||
                        \\                                        //



Bm         x4   B      x3   Bm    x4   B   x3     C7/B   
                                            //            \\
------------|-----------|----------|--------||------------||
--3---------|---4-------|--3-------|--4-----||----5-------||
-------4----|--------4--|------4---|------4-||---------5--||
-----4------|------4----|----4-----|----4---||-------5----||
------------|-----------|----------|--------||------------||
------------|-----------|----------|--------||----6-------||
                                            \\            //



Ab             Db           G7             Repeat bracketed section x4
                        //                                        \\
------------|-----------||---3------|---------|---------|---------||
--4---------|---6-------||---0----0-|-------0-|-------0-|-------0-||
-------5----|--------6--||---0--0---|-----0---|-----0---|-----0---||
-----6------|------6----||----------|---3-----|---1-----|---0-----||
------------|-----------||----------|---------|---------|---------||
--4---------|---4-------||----------|---------|---------|---------||
                        \\                                        //



  Bb        x2   Amsus  x2    C/G      G    x3
//                                             \\
||------------|-----------|----------|---------||
||--3---------|---1---3---|---1------|---0-----||
||-------3----|---0-------|---0------|---0-----||
||-----3------|---2-------|---2------|---0-----||
||--1---------|---0---0---|----------|---------||
||------------|-----------|---3------|---3-----||
\\                                             //



Bb        x2   Amsus  x2     G7
                        //                                           \\
------------|-----------||----3------|---------|---------|-----------||
--3---------|---1---3---||----0----0-|-------0-|-------0-|-------0---||
-------3----|---0-------||----0--0---|-----0---|-----0---|-----0-----||
-----3------|---2-------||-----------|---3-----|---1-----|---0-----0-||
--1---------|---0---0---||-----------|---------|---------|-----------||
------------|-----------||-----------|---------|---------|-----------||
                        \\                                           // 


For the Amsus -> C/G -> G use a loose strum rather than pick. That bit is a bit
dodgy, so you might need to play around with it until it feels right.

Thanks.
            
Submit corrections

comments powered by Disqus
↑ Back to top | Radiohead Tabs for Faust Arp. Lyrics for acoustic guitar and electric guitar. 1 Tablatures and chords are parodies/interpretations of the original songs. You may use it for private study, scholarship, research or language learning purposes only