>
 >
Faust Arp 2

Faust Arp 2 Guitar Tabs

Radiohead - Faust Arp 2 chords, tabs, tablatures, lyrics

Guitar lessons | Add/correct | Request | Top 50 tabs Artists:  A B C D E F G H I J K L M N O P Q R S T U V W X Y Z 0-9

Faust Arp 2 Guitar Tabs – Radiohead

CD, Sheet music, Poster

Do you like Faust Arp 2? Share with your friends now
ChordsChords v2Chords v3TabsTabs v2Tabs v3Ukulele


e|------------------------------------------------------------------|
B|---3--------------------------------------------------------------|
G|---------------------------4--------------------------------------|
D|--------------4---------------------------------------------------|
A|---2------2---------2--------------2------------------------------|
E|------------------------------------------------------------------|
Repeat Until

  On Again off again
e|------------------------------------------------------------------|
B|--3----------------------------3----------------------------------|
G|----------------4----------------------------4--------------------|
D|--4----------------------------4----------------------------------|
A|--2--------2-----------2-------0--------0-----------0-------------|
E|------------------------------------------------------------------|

e|---------------------------------------------------------------|
B|--3-----------------------------4------------------------------|
G|---------------4----------------------------------------4------|
D|--4-----------------------------4------------4-----------------|
A|---------------------------------------------------------------|
E|--3------3------------3---------2-------2----------2---------2-|

e|--------------------------------------------------------------------|
B|--4-----------------------------------------------------------------|
G|---------------------------------4----------------------------------|
D|--4---------------4-------------------------------------------------|
A|--------------------------------------------------------------------|
E|--2--------2-------------2----------------2-------------------------|

e|---------------------------------------------------------------------|
B|---4------------------------------4----------------------------------|
G|-------------------4--------------4----------------------------------|
D|---4---------------4-------------------------------------------------|
A|---------------------------------------------------------------------|
E|---2--------2--------------2--------------2--------------------------|

 Then Repeat that whole section again until
  Reasonable and sensible………………….
e|-0------------------------------------------------------------------|
B|---------------------------1----------------------------------------|
G|--------------0-----------------------------------------------------|
D|--------------------------------------------------------------------|
A|-1------1-----------1-------------1---------------------------------|
E|--------------------------------------------------------------------|

e|--0------------------------------------------------------------------|
B|------------------1--------------------------------------------------|
G|------------------------------0--------------------------------------|
D|---------------------------------------------------------------------|
A|--1--------1------------1------------1-------------------------------|
E|---------------------------------------------------------------------|

e|---------------------------------------------------------------------|
B|---4-----------------------------------------------------------------|
G|--------------------5------------------------------------------------|
D|-------------------------------------6-------------------------------|
A|---------------------------------------------------------------------|
E|---4--------4---------------4-----------------4----------------------|

e|---------------------------------------------------------------------|
B|---6-----------------------------------------------------------------|
G|-----------------------------6---------------------------------------|
D|----------------6----------------------------------------------------|
A|---4------4-----------4----------------4-----------------------------|
E|---------------------------------------------------------------------|

e|--3------------------------------------------------------------------|
B|--0----------------0-------------------------------------------------|
G|-------------------0-------------------------------------------------|
D|-----------------------------------0---------------------------------|
A|---------------------------------------------------------------------|
E|--3---------3---------------3--------------3-------------------------|

e|------------------3--------------------------------------------------|
B|------------------0--------------------------------------------------|
G|-----------------------------------0---------------------------------|
D|---3-----------------------------------------------------------------|
A|---------------------------------------------------------------------|
E|---3--------3--------------3---------------3-------------------------|

e|------------------3--------------------------------------------------|
B|------------------0--------------------------------------------------|
G|--------------------------------0------------------------------------|
D|--1------------------------------------------------------------------|
A|---------------------------------------------------------------------|
E|--3--------3-------------3-------------3-----------------------------|

e|---------------------------------------------------------------------|
B|--0------------1----------------1------------------------------------|
G|---------------------------------------------------------------------|
D|--0------------------------------------------------------------------|
A|---------------------------------------------------------------------|
E|--3-------3-------------3--------------3-----------------------------|

e|--3------------------------------------------------------------------|
B|--0----------0-------------------------------------------------------|
G|-------------0-------------------------------------------------------|
D|--------------------------0------------------------------------------|
A|---------------------------------------------------------------------|
E|--3-----3-----------3-----------3------------------------------------|

e|-----------------3---------------------------------------------------|
B|-----------------0---------------------------------------------------|
G|----------------------------0----------------------------------------|
D|--3------------------------------------------------------------------|
A|---------------------------------------------------------------------|
E|--3------3-------------3-----------3---------------------------------|

e|---------------3-----------------------------------------------------|
B|---------------0-----------------------------------------------------|
G|---------------------------------------------------------------------|
D|--1------------------------------0-----------------------------------|
A|---------------------------------------------------------------------|
E|--3------3---------------3-------------3-----------------------------|

e|---------------------------------------------------------------------|
B|--------------0---------------0--------------------------------------|
G|---------------------------------------------------------------------|
D|--0------------------------------------------------------------------|
A|---------------------------------------------------------------------|
E|--3-------3------------3------------3--------------------------------|

e|-------------------------------------------------------------------|
B|----------------0--------------0-----------------------------------|
G|-------------------------------------------------------------------|
D|--0----------------------------------------------------------------|
A|-------------------------------------------------------------------|
E|--3-------3-------------3---------------3--------------------------|
  Repeat song again Then the part with just guitar and no lyrics


e|---------------------------------------------------------------------|
B|--3-------------3----------------------------------------------------|
G|--------------------------------0------------------------------------|
D|----------------3----------------------------------------------------|
A|--1------1-------------1----------------1----------------------------|
E|---------------------------------------------------------------------|

e|--1------------------------------------------------------------------|
B|--3----------------3-------------------------------------------------|
G|-----------------------------------0---------------------------------|
D|-------------------3-------------------------------------------------|
A|--1---------1--------------1----------------0------------------------|
E|---------------------------------------------------------------------|

e|--1------------------------------------------------------------------|
B|--1---------------3--------------------------------------------------|
G|-------------------------------0-------------------------------------|
D|------------------3--------------------------------------------------|
A|--0-------0--------------0------------0------------------------------|
E|---------------------------------------------------------------------|

e|---------------3-----------------------------------------------------|
B|--1------------------------------1-----------------------------------|
G|---------------------------------0-----------------------------------|
D|---------------3-----------------2-----------------------------------|
A|--0------0--------------0------------------0-------------------------|
E|---------------------------------------------------------------------|

e|--3------------------------------------------------------------------|
B|--1----------1-------------------------------------------------------|
G|---------------------------------------------------------------------|
D|-------------2-------------2-----------------------------------------|
A|---------------------------------------------------------------------|
E|--3-----3------------3------------3----------------------------------|

e|--3------------------------------------------------------------------|
B|--0------------0-----------------------------------------------------|
G|---------------------------------------------------------------------|
D|---------------0---------------0-------------------------------------|
A|---------------------------------------------------------------------|
E|--3-------3------------3----------------3----------------------------|

e|--3------------------------------------------------------------------|
B|--0--------------0---------------------------------------------------|
G|---------------------------------------------------------------------|
D|-----------------0-------------0-------------------------------------|
A|---------------------------------------------------------------------|
E|--3-------3------------3--------------3------------------------------|

e|--3-----------------------------------------------------------------|
B|--0----------------0------------------------------------------------|
G|--------------------------------------------------------------------|
D|-------------------0----------------0-------------------------------|
A|------------------------------------------0-------------------------|
E|--3--------3--------------3-----------------------------------------|

And so on the it just repeats well this is an official tab it is perfect.





Comments


Popular Radiohead tabs & chords
Electioneering 3 Bass Tabs
Bullet Proof Chords
Exitsong Chords
Creep 1 Tabs
Down Is The New Up 1 Tabs
Lozenge Of Love Tabs
Morning Bell 2 Tabs
Talk Show Host 2 Tabs
Go Slowly Ukulele
Optimistic Ukulele


Song lyrics



↑ Back to top | Tablatures and chords are parodies/interpretations of the original songs. You may use it for private study, scholarship, research or language learning purposes only
© 2014 AZChords.com Contact us | Privacy policy | DMCA | Add/correct tabs | Request tabs | Top 50 tabs