>
 >
Song For The Deaf

Song For The Deaf Guitar Tabs

Queens Of The Stone Age - Song For The Deaf chords, tabs, tablatures, lyrics

Guitar lessons | Add/correct | Request | Top 50 tabs Artists:  A B C D E F G H I J K L M N O P Q R S T U V W X Y Z 0-9

Song For The Deaf Guitar Tabs – Queens Of The Stone Age

CD, Sheet music, Poster

Do you like Song For The Deaf? Share with your friends now
Bass TabsBass Tabs v2TabsTabs v2
Band - Queens of the Stone Age
Tab - Mark Wooff (Tequito)
Song - Song for the Deaf
CD - Songs for the Deaf
Tuning (from low to high ) - (down 2 full steps) C F Bb Eb G c

Symbols:  \ - slide
      h  - hammer-on
      p  - pull-off
      b  - bend
      r  - release bend
      v  - vibrato
      ^  - let ring
      x  - dead note


Bass Riff #1 (no distortion) X6

|------------------------------------|
|--------------------------6-6-------|
|-----8\7-----8\7-----8\7-------8\7--|
|--0-------0-------0-----------------|


Riff #1 (with distortion) X10

|----------------------------------|
|----------------------------------|
|----------------------------------|
|--------------------------6v------|
|-----8\7-----8\7-----8\7-----8\7--|
|--0-------0-------0---------------|


Chorus X2

|-------0------|-------0------|-------0------|-------0------|    |-0^------------|
|-------0------|-------0------|-------0------|-------0------|    |-0^------------|
|--------------|--------------|--------------|--------------|    |-x-------------|
|-7--7-----7-7-|-9--9-----9-9-|-5--5-----5-5-|-5--5-----5-5-|    |-5^------------| Played for the 
|-7--7-----7-7-|-9--9-----9-9-|-5--5-----5-5-|-5--5-----5-5-|    |-5^------------| ending the second
|-5--5-----5-5-|-7--7-----7-7-|-3--3-----3-3-|-3--3-----3-3-|    |-3^------------| time.


Riff #1 (with distortion) X2

|----------------------------------|
|----------------------------------|
|----------------------------------|
|--------------------------6v------|
|-----8\7-----8\7-----8\7-----8\7--|
|--0-------0-------0---------------|


After Riff #1 X2

         X4                    X4
|--------------------|--------------------|
|-13p12p10-12p10-12--|--------------------|
|--------------------|-14p13p11-13p11-13--|
|--------------------|--------------------|
|--------------------|--------------------|
|--------------------|--------------------|


Riff #1 (with distortion) X4

|----------------------------------|
|----------------------------------|
|----------------------------------|
|--------------------------6v------|
|-----8\7-----8\7-----8\7-----8\7--|
|--0-------0-------0---------------|


Riff #2  X4                          Guitar 2:  With Riff #2 X2 

|----------------------|          |---------------------------------|        
|----------------------|          |-13---10h12-----------12---------|   
|----------------------|  played  |------------10---13------10------|
|-----15p12-----12p11--| together |----------------------------12---|
|----------------------|          |---------------------------------|
|--0---------0---------|          |---------------------------------|


Riff #1 (with distortion) X4

|----------------------------------|
|----------------------------------|
|----------------------------------|
|--------------------------6v------|
|-----8\7-----8\7-----8\7-----8\7--|
|--0-------0-------0---------------|


Chorus X4
 
|-------0------|-------0------|-------0------|-------0------|     |-0^------------|
|-------0------|-------0------|-------0------|-------0------|     |-0^------------|
|--------------|--------------|--------------|--------------|     |-x-------------|
|-7--7-----7-7-|-9--9-----9-9-|-5--5-----5-5-|-5--5-----5-5-|     |-5^------------| Played for the 
|-7--7-----7-7-|-9--9-----9-9-|-5--5-----5-5-|-5--5-----5-5-|     |-5^------------| ending the fourth
|-5--5-----5-5-|-7--7-----7-7-|-3--3-----3-3-|-3--3-----3-3-|     |-3^------------| time.


Chorus Fills

|-----------|-----------|---------|-------------|
|-10h12 10v-|-----------|---------|-------------|
|-----------|-11h13-11v-|-7h9-6h7-|-7p6-6-6-4-4-|  1st time
|-----------|-----------|---------|-------------|
|-----------|-----------|---------|-------------|
|-----------|-----------|---------|-------------|

|---------|-----------|---------|-----------|
|---------|-----------|---------|-----------|
|-9h11-9v-|-11h13-11v-|-7h9-6h7-|-7p6-10b-9-|  2nd time
|---------|-----------|---------|-----------|  
|---------|-----------|---------|-----------|
|---------|-----------|---------|-----------|

|---------|-----------|---------|-------------|
|---------|-----------|---------|-------------|
|-9h11-9v-|-11h13-11v-|-7p6-10b-|-7p6---------|  3rd time
|---------|-----------|---------|-----7p5-----|
|---------|-----------|---------|---------7p5-|
|---------|-----------|---------|-------------|

|---------|-----------|
|---------|-12h14h12--|
|-9h11-9v-|-----------|  4th time
|---------|-----------|
|---------|-----------|
|---------|-----------|


Riff #3 (play over bass)

|----------------------------------------------|            Bass Riff
|----------------------------------------------|
|----------------------------------------------| |------------------------------|
|-2----------2-2---2----2-2-2--2--2--2-2-2-2-2-| |----------------------6v------|
|-2----------2-2---2----2-2-2--2--2--2-2-2-2-2-| |----8\7----8\7----8\7-----8\7-|
|-0----------0-0---0----0-0-0--0--0--0-0-0-0-0-| |-0------0------0--------------|
                                                          
|----------------------------------------------|
|----------------------------------------------|
|----------------------------------------------|
|-2----------2-2---------2----------2-2--------|
|-2----------2-2---------2----------2-2--------|
|-0----------0-0---------0----------0-0--------|


After Riff #3 X4

         X4                    X4
|--------------------|--------------------|
|-13p12p10-12p10-12--|--------------------|
|--------------------|-14p13p11-13p11-13--|
|--------------------|--------------------|
|--------------------|--------------------|
|--------------------|--------------------|


Riff #4 X1

|---------------------------------------------------------------------|
|---------------------------------------------------------------------|
|---------7b-7-------------7b-7-------------7b-7-------------10b------|
|---------------------------------------------------------------------|
|-----8\7------8\7-----8\7------8\7-----8\7------8\7-----8\7------8\7-|
|-0-0--------------0-0--------------0-0--------------0-0--------------| 
 

Riff #4a X3

|----------------------------------------------------------------------|
|----------------------------------------------------------------------|
|---------7b-7--------------7b-7-------------10b--------------10b------|
|----------------------------------------------------------------------|
|-----8\7------8\7-----8\7-------8\7-----8\7-----8\7-----8\7-------8\7-|
|-0-0--------------0-0---------------0-0-------------0-0---------------|


Chorus X4

|-------0------|-------0------|-------0------|-------0------|
|-------0------|-------0------|-------0------|-------0------|
|--------------|--------------|--------------|--------------|
|-7--7-----7-7-|-9--9-----9-9-|-5--5-----5-5-|-5--5-----5-5-|
|-7--7-----7-7-|-9--9-----9-9-|-5--5-----5-5-|-5--5-----5-5-|
|-5--5-----5-5-|-7--7-----7-7-|-3--3-----3-3-|-3--3-----3-3-|


Chorus Fills

|---------|-----------|---------|-------------|
|---------|-----------|---------|-------------|
|-9h11-9v-|-11h13-11v-|-7h9-6h7-|-7p6-6-6-4-4-|  1st time
|---------|-----------|---------|-------------|
|---------|-----------|---------|-------------|
|---------|-----------|---------|-------------|

|---------|-----------|---------|-----------|
|---------|-----------|---------|-----------|
|-9h11-9v-|-11h13-11v-|-7h9-6h7-|-7p6-10b-9-|  2nd time
|---------|-----------|---------|-----------|  
|---------|-----------|---------|-----------|
|---------|-----------|---------|-----------|

|---------|-----------|---------|-------------|
|---------|-----------|---------|-------------|
|-9h11-9v-|-11h13-11v-|-7p6-10b-|-7p6---------|  3rd time
|---------|-----------|---------|-----7p5-----|
|---------|-----------|---------|---------7p5-|
|---------|-----------|---------|-------------|

|---------|-----------|
|---------|-----------|
|-9h11-9v-|-11h13-11v-|  4th time
|---------|-----------|
|---------|-----------|
|---------|-----------|


Outro

|-0^------------|
|-0^------------|
|-x-------------|
|-5^------------| 
|-5^------------| 
|-3^------------| 





                         The End ha ha ha ha part

keep on repeating till done

|---------------------------|
|---------------------------|
|---------------------------|
|---------------------------| 
|-------------------------0^| 
|-2-2-2-2-2-2-2-2-2-2-2-2---| 





                                GO SENS GO!!!!!





Comments


Popular Queens Of The Stone Age tabs & chords
Leg Of Lamb Bass Tabs
Lightning Song 1 Bass Tabs
The Vampyre Of Time And Memory Chords
The Vampyre Of Time And Memory 2 Chords
How To Handle A Rope Tabs
I Wanna Make It Wit Chu 2 Tabs
No One Noes Tabs
Precious And Grace Intro Tabs
Smooth Sailing 1 Tabs
You Cant Quit Me Baby 1 Tabs


Song lyrics



↑ Back to top | Tablatures and chords are parodies/interpretations of the original songs. You may use it for private study, scholarship, research or language learning purposes only
© 2014 AZChords.com Contact us | Privacy policy | DMCA | Add/correct tabs | Request tabs | Top 50 tabs