» » »

A Song For The Deaf Tabs (ver.2)

Artists:  A B C D E F G H I J K L M N O P Q R S T U V W X Y Z # 

A Song For The Deaf Tabs (ver.2)

Queens Of The Stone Age
Rating:
0/5 (0 votes)

Hard to play? Try these video lessons and learn fast.
                CHECK MY BAND APACE!!!!!!!

Bass Intro:                  (x3)                           (x1)
Eb|------------------------------|------------------------------|
Bb|----------------------6-6-----|----9-9----6-6--------6-6-----|
 F|----8p7----8p7----8p7-----8p7-|------------------8p7-----8p7-|
 C|-0------0------0--------------|-0------0------0--------------|
                             (x1)                           (x1)
Eb|------------------------------|------------------------------||
Bb|----------------------6-6-----|----9-9----6-6--------6-6-----||
 F|----8p7----8p7----8p7-----8p7-|------------------8p7-----8p7-||
 C|-0------0------0--------------|-0------0------0--------------||


Riff A:
 C|--------------------------------||
 G|--------------------------------||
Eb|--------------------------------||
Bb|----------------------6v-6v-----||
 F|----8p7----8p7----8p7-------8p7-||
 C|-0------0------0----------------||


Chorus Riff:
 C|--------0---------0---------0---------0--||
 G|--------0---------0---------0---------0--||
Eb|-----------------------------------------||
Bb|-7--7-7----9--9-9----5--5-5----5--5-5----||
 F|-7--7-7----9--9-9----5--5-5----5--5-5----||
 C|-5--5-5----7--7-7----3--3-3----3--3-3----||


Chorus Fills:
 C|-------------|-------------|----------|-------||
 G|-10h12p10-10-|-12h14p12-12-|-8h10p8-8-|-8h10--||
Eb|-------------|-------------|----------|-------||
Bb|-------------|-------------|----------|-------||
 F|-------------|-------------|----------|-------||
 C|-------------|-------------|----------|-------||


Riff B:            (x4)                 (x4)
 C|--------------------|--------------------||
 G|-13p12p10-12p10-12--|--------------------||
Eb|--------------------|-14p13p11-13p11-13--||
Bb|--------------------|--------------------||
 F|--------------------|--------------------||
 C|--------------------|--------------------||


"Canary" Riff:
 C|---------------------------------||
 G|-13---10-12-----------12---------||
Eb|------------10---13------10------||
Bb|----------------------------12---||
 F|---------------------------------||
 C|---------------------------------||


Verse 3:
 C|-----------------------------------------------|
 G|-----------------------------------------------|
Eb|-----------------------------------------------|
Bb|-2----------2-2---2----2-2-2--2--2--2-2-2-2-2--|
 F|-2----------2-2---2----2-2-2--2--2--2-2-2-2-2--|
 C|-0----------0-0---0----0-0-0--0--0--0-0-0-0-0--|

 C|-----------------------------------------------||
 G|-----------------------------------------------||
Eb|-----------------------------------------------||
Bb|-2----------2-2---------2----------2-2---------||
 F|-2----------2-2---------2----------2-2---------||
 C|-0----------0-0---------0----------0-0---------||


Verse 4:
Riff A.
 C|---------------------------------------------------------------------------||
 G|---------------------------------------------------------------------------||
Eb|---------7v-7v-------------7v-7v-------------7v-7v-------------10v-10v-----||
Bb|---------------------------------------------------------------------------||
 F|-----8p7-------8p7-----8p7-------8p7-----8p7-------8p7-----8p7---------8p7-||
 C|-0-0---------------0-0---------------0-0---------------0-0-----------------||

Riff B.
 C|-----------------------------------------------------------------------------||
 G|-----------------------------------------------------------------------------||
Eb|---------7v-7v-------------7v-7v-------------10v-10v-------------10v-10v-----||
Bb|-----------------------------------------------------------------------------||
 F|-----8p7-------8p7-----8p7-------8p7-----8p7---------8p7-----8p7---------8p7-||
 C|-0-0---------------0-0---------------0-0-----------------0-0-----------------||
            
Hard to play? Try these video lessons and learn fast. | Correct




comments powered by Disqus
↑ Back to top | Tablatures and chords are parodies/interpretations of the original songs. You may use it for private study, scholarship, research or language learning purposes only